Oops, an error
Loading. Please wait.

Harroje Vetmine Tab

891 views 1 this week
no commentswrite comment
1 2 3 4 5
1 last vote to show rating
add to favorites
launch autoscroll
font size
0
reset
how to read this tab
guitar tuner
Autoscroll
slow
fast
+/-
esc
set tempo
stop
Help us to improve Ultimate-Guitar.com Take our survey!
×
Author
Artist : Elita 5
Song   : Harroje Vetmine
Tabb by: ilir livoreka
contact: iLoo.st@hotmail.com

Intro

==========================Aadd9================

e|------------0-----------------------0------------------|
B|----------0----0---0-------------0-----0-----0---------|
G|-------6---------6------------6-----------6------------|
D|----7----------------------7---------------------------|
A|-7---------------------7-------------------------------|
E|-------------------------------------------------------|

==========================F#m============================

e|-------------2---------------------------2-------------|
B|----------2----2----2-----------------2-----2-----2----|
G|-------2---------2-----------------2-----------2-------|
D|----4---------------------------4----------------------|
A|-4--------------------------4--------------------------|
E|-------------------------------------------------------|

===========================Bm============================

e|-------------2----------------------2------------------|
B|----------3----3-----3-----------3-----3-----3---------|
G|--------4---------4-----------4-----------4------------|
D|----4----------------------4---------------------------|
A|-2----------------------2------------------------------|
E|-------------------------------------------------------|

==============================E==========================

e|-------------0-------------------------0--------------||
B|----------0-----0----0--------------0-----0-----0-----||
G|-------1----------1--------------1----------1---------||
D|----2-------------------------2-----------------------||
A|-2-------------------------2--------------------------||
E|------------------------------------------------------||


Akordet:

Aadd9:77600
F#m  :244222
Bm   :x24432
E    :022100
D    :xx0232

Tema:

| Aadd9 | F#m | Bm | E |

Ref:

| D  | A || D | A | E |

solo: muni me bo improvizim n'shkall.. A - dur, ose A major

e---------------------------4-5-||
B-----------------------5-7-----||
G-----------------4-6-7---------||
D-----------4-6-7---------------||
A-----4-5-7---------------------||
E-5-7---------------------------||


Fundi:

| A |

me t'mira akordet jon shum korrekt weq ju vyn me ndigju te refreni heren e par luhet D,A 
e dyt D,A edhe E.

thx.
Suggest correction
Give kudos to tab author, rate the tab!
1 2 3 4 5
comments
print report bad tab
guest
You may want to rate the tab now too:
select rating
Wanna post a correction for this tab? Suggest correction