Oops, an error
Loading. Please wait.

Oh Babe It Aint No Lie Tab

version 1
version 1

Whole song

Interactive

7,588 views 12 this week
1 commentread comment
1 2 3 4 5
1 last vote to show rating
add to favorites
launch autoscroll
font size
0
reset
how to read this tab
guitar tuner
Autoscroll
slow
fast
+/-
esc
set tempo
stop
Help us to improve Ultimate-Guitar.com Take our survey!
×
Author
Tabbers playing skills
----------------------------------------------------------------------------
               Oh Babe It Ain't No Lie - Elizabeth Cotten
----------------------------------------------------------------------------


Tabbed by: Dave S. 
Email: prime-prine@hotmail.com

Tuning: Standard


Gtr I (E A D G B E) 

  
  Gtr I
|-3--------3----|-2--------1----|-0--------------|---------------|
|---------------|---------------|----------1---1-|----------1----|
|------0--------|------0--------|------0---------|------0--------|
|----0-------0--|----0-------0--|----2-----------|----2-------2--|
|---------------|---------------|-3--------------|-3-------------|
|-3------3------|-2------3------|--------3---0---|--------3------|


|-------0---------|-----------0-----|-----------------|--------------|-----|
|---------------3-|-------0-------3-|-----------1---3-|---1----------|-----|
|-0h1-------1-----|---1-------------|---0---2---------|--------------|-----|
|---------2-------|-2-------2-------|-2-------3-------|-3------3-----|-3---|
|-----------------|-----------------|-----------------|--------------|-----|
|-----0-------0---|-----0-------0---|-----1-------1---|-----1-----1--|-----|


|----------------|--------------|-0------------3-|------------3-|
|-------1--------|-1----3----4--|------1---------|--------------|
|---2-------2----|--------------|----------0-----|--------------|
|-----3-------3--|----3------0--|----2-------2---|----2-----2---|
|----------------|--------------|----------------|--------------|
|-1-------1------|-1------1-----|-3------3-------|-3-----3------|


|---5-------0-----|-----------------|-----------------|-------------|
|-------8-------1-|-------1---3-----|---1-------1-----|-------------|
|-----------------|---2-----------0-|-------0-------0-|-------0-----|
|-------------2---|-----0-------0---|-----2-------2---|----2-----2--|
|-----------------|-----------------|-3---------------|-3-----------|
|-3---5---3-------|-3-------3-------|---------3-------|-------3-----|


|-0-----0-----|-0-----------|--------------|-------------|-----|
|-------------|-------3-----|--------1-----|-------1-----|-3---|
|-------------|-------------|-0h2----------|-2-----------|-----|
|----2-----2--|----2-----2--|--------3-----|-3-----3-----|-3---|
|-------------|-------------|--------------|-------------|-----|
|-3-----3-----|-3-----3-----|-----1-----1--|----1-----1--|-----|


|-0------------|----------------|---------------|---------------|
|------1-------|-1--------3-----|---1-----------|----------1----|
|-----------2--|------0-------0-|-------0-------|------0--------|
|----2------0--|----2-------3---|-----2------2--|----2-------2--|
|--------------|----------------|-3-------------|-3-------------|
|-3------3-----|-3------3-------|---------3-----|--------3------|


|-0--------------|---0------------|----------------|---------------|
|----------1-----|-----------3----|-------1--------|-1----3---4----|
|------0-------0-|-------0--------|-0h2-------2----|---------------|
|----2-------2---|-----2-------2--|-----3-------3--|----3-------4--|
|----------------|----------------|----------------|---------------|
|-3------3-------|-3-------3------|-1-------1------|-1------1------|


|-0----3---0-----|-----------------|-----------------|----0--1--2--|
|--------------1-|-------1---3-----|---1-------------|-------------|
|----------------|---2-----------0-|-------0---0---0-|-------------|
|----2-------2---|-----0-------0---|-----------------|----2--------|
|----------------|-----------------|-3---0-----------|-3-----------|
|-3------3-------|-3-------3-------|---------3---0---|-------------|


|-3----3---3----|-2-----1-----|-0--------------|---------------|
|---------------|-------------|----------1---1-|----------1----|
|---------------|-------------|------0---------|------0--------|
|----0-------0--|----0-----0--|----2-----------|----2-------2--|
|---------------|-------------|-3--------------|-3-------------|
|-3------3------|-2-----3-----|--------3---0---|--------3------|


|-------0---------|-----------0-----|---------------|----5---------|-----|
|---------------0-|-------3-------3-|-------------5-|--------------|-----|
|-0h1-------1-----|---1-------------|---------6-----|---------6----|-----|
|---------2-------|-2-------2-------|-2-----7-------|-7-----7------|-7---|
|-----------------|-----------------|---------------|--------------|-----|
|-----0-------0---|-----0-------0---|----5------5---|----5------5--|-----|


|---------------|----------------|--------0------|--------3-----|------|
|-------------1-|----------1---3-|---4---------1-|--------------|------|
|-------0h2-----|----0h2---------|---------------|---0----------|------|
|----3----------|-3----------3---|-----4-----2---|-----2-----2--|----2-|
|---------------|----------------|---------------|--------------|------|
|-1---------1---|--------1-------|-1------3------|-3------3-----|-3----|


|---5-------0-----|-----------------|---------------|-0----|
|-------8-------1-|-------1---3-----|---1-----------|-1----|
|-----------------|---2-----------0-|-------0-------|-0----|
|-------------2---|-----0-------0---|---------------|-2----|
|-----------------|-----------------|-3---0---------|-3----|
|-3---5---3-------|-3-------3-------|---------3--0--|-3----|


| /  slide up
| \  slide down
| h  hammer-on
| p  pull-off
| ~  vibrato
| +  harmonic
| x  Mute note
===========================================================================
Suggest correction
Give kudos to tab author, rate the tab!
1 2 3 4 5
comments
print report bad tab
1 comment total.
0 reply
aig91 [cc] 4,326 Feb 09, 2009 04:52 PM

Nice! This is definitely very helpful.

guest
You may want to rate the tab now too:
select rating
Wanna post a correction for this tab? Suggest correction