Oops, an error
Loading. Please wait.
We have Chord Pro version of Exs And Ohs.
It's the closest thing you can get to the original song and it has interactive parts. Check out the tab »
×
18,789 views 81 this week
1 commentread comment
1 2 3 4 5
x 19
add to favorites
×
Save as Personal and add changes to this tab that will be seen only by you. Learn more ›
×
You can save this tab as Personal to edit and correct it or add notes. All changes will be seen only by you. Learn more »
launch autoscroll
font size
0
reset
guitar tuner
edit
Autoscroll
slow
fast
+/-
esc
set tempo
stop
Author
Difficulty
intermediate
Exs And Ohs - Elle King

Tabbed by: donnieb1225                  
E-mail: Donnieb1225@gmail.com 

[Intro]

G|-------------------------|
D|-------------------------|
A|-7-----5-7-----5-7-----5-|   
E|----7-------7-------7----|


[Verse 1]

Well, I had me a boy, turned him into a man...
G|--------------------------------------------------------------------|
D|--------------------------------------------------------------------|  
A|-7-----5-7-----5-7-----5-7-----5-----9------9---7-----5-7-----5-----|
E|----7-------7-------7-------7----7------7-----7----7-------7--------|(x2)


[Pre-Chorus]

   1,2 3,They Gonna ..
G|-X---X---X---X|   Clap or Mute Notes
D|-X---X---X---X|   (Down Beats)
A|-X---X---X---X|   X3
E|-X---X---X---X|   

They always want to come...
G|-X------------|
D|-X------------|
A|-X------------|
E|-X------------|


[Chorus]

Exs and Oh,oh,ohs they haunt me...
G|-------------------------------------------------------------------|
D|-------------------------------------------------------------------|
A|---------5-5-5-5-7-7-7-7-----------------5-5-5-5-------------------|
E|-3-3-3-3-----------------7-7-7-7-3-3-3-3---------5-5-5-5-8-8-8-8---|


[Post-Chorus]

G|-------------------------|
D|-------------------------|
A|-7-----5-7-----5-7-----5-|   
E|----7-------7-------7----|


[Verse 2]

I had a summer lover...
G|--------------------------------------------------------------------|
D|--------------------------------------------------------------------|  
A|-7-----5-7-----5-7-----5-7-----5-----9------9---7-----5-7-----5-----|    X2
E|----7-------7-------7-------7----7------7-----7----7-------7--------|


[Pre-Chorus]

   1,2 3,They Gonna...
G|-X---X---X---X|   Clap or Mute Notes
D|-X---X---X---X|   (Down Beats)
A|-X---X---X---X|   X3
E|-X---X---X---X|   

They always want to come...
G|-X------------|
D|-X------------|
A|-X------------|
E|-X------------|


[Chorus]

Exs and Oh,oh,ohs they haunt me...
G|-------------------------------------------------------------------|
D|---------------------------------5-5-5-5---------------------------|
A|---------5-5-5-5-7-7-7-7-----------------5-5-5-5-------------------|
E|-3-3-3-3-----------------7-7-7-7-----------------5-5-5-5-8-8-8-8---|

My Exs and Oh,oh,ohs they haunt me...
G|-------------------------------------------------------------------|
D|-------------------------------------------------------------------|
A|---------5-5-5-5-7-7-7-7-----------------5-5-5-5-------------------|
E|-3-3-3-3-----------------7-7-7-7-3-3-3-3---------5-5-5-5-8-8-8-8---|


[Solo]

G|--------------------------------------------------------------------|
D|--------------------------------------------------------------------|  
A|-7-----5-7-----5-7-----5-7-----5-----9------9---7-----5-7-----5-----|
E|----7-------7-------7-------7----7------7-----7----7-------7--------|


[Pre-Chorus]

   1,2 3,They Gonna...
G|-X---X---X---X|    Clap or Mute Notes
D|-X---X---X---X|   (Down Beats)
A|-X---X---X---X| 
E|-X---X---X---X|(x3)   

They always want to come...
G|-X------------|
D|-X------------|
A|-X------------|
E|-X--------12\3|


[Chorus]

Exs and Oh,oh,ohs they haunt me...
G|-------------------------------------------------------------------|
D|---------------------------------5-5-5-5---------------------------|
A|---------5-5-5-5-7-7-7-7-----------------5-5-5-5-------------------|
E|-3-3-3-3-----------------7-7-7-7-----------------5-5-5-5-8-8-8-8---|

My Exs and Oh,oh,ohs they haunt me...
G|-------------------------------------------------------------------|
D|-------------------------------------------------------------------|
A|---------5-5-5-5-7-7-7-7-----------------5-5-5-5-------------------|
E|-3-3-3-3-----------------7-7-7-7-3-3-3-3---------5-5-5-5-8-8-8-8---|


[Outro]

G|--------------------|
D|--------------------|
A|-7-----5-7-----5----|  
E|----7-------7----7\3|

Feel free to add grace notes. Its my first tab hope you like it. Rate!

************************************

| \  Slide down
| X  dead note

************************************

            
            
Suggest correction
Creating personal tab
Creating personal tab
You can edit any tab online and save it as your Personal.

You can edit, replace or remove any tab part or add personal notes – all changes will be seen only by you.

Personal tabs can be accessed anytime from any device, even offline.
Learn more »
comments
print report bad tab
1 comment total.
0 reply
Vorpike 113 Aug 11, 2015 03:38 PM

You're missing an extra 7 after each one on the A string.

guest
You may want to rate the tab now too:
select rating
Wanna post a correction for this tab? Suggest correction