Oops, an error
Loading. Please wait.

Last Damn Night Tab

335 views 1 this week
no commentswrite comment
1 2 3 4 5
2 more votes to show rating
add to favorites
launch autoscroll
font size
0
reset
how to read this tab
guitar tuner
Autoscroll
slow
fast
+/-
esc
set tempo
stop
Author
Tuning
E A D G B E
=============================
 Elle King - Last Damn Night
=============================
No capo

[Intro]
e|------------------------------|
B|------------------------------|
G|------------------------------|
D|------------------------------|
A|-------5~---------5---5~------| x3
E|-5--7-----7---5-7---7----7----|

e|------------------------|
B|------------------------|
G|-------------9----7-----|
D|-------------9----7-----|
A|-------5~----7----5-----|
E|-5--7-----7-------------|

________________________________
~ - Vibrato
Suggest correction
Give kudos to tab author, rate the tab!
1 2 3 4 5
comments
print report bad tab
guest
You may want to rate the tab now too:
select rating
Wanna post a correction for this tab? Suggest correction