Oops, an error
Loading. Please wait.

See You Again tab

2,005 views 15 this week
1 commentread comment
1 2 3 4 5
x 3
add to favorites
×
Save as Personal and add changes to this tab that will be seen only by you. Learn more ›
×
You can save this tab as Personal to edit and correct it or add notes. All changes will be seen only by you. Learn more »
launch autoscroll
font size
0
reset
how to read this tab
guitar tuner
edit
Autoscroll
slow
fast
+/-
esc
set tempo
stop
-------------------------------------------------------------------------------
                             See You Again - Elle King
-------------------------------------------------------------------------------
Tabbed by: Clayton Sanders

This is pretty close to what Elle plays on this song. She may add a few bass notes here and
there that I do not include, but this is pretty close.

Tuning: Open G tuned down a half-step. (Open F#) C# F# C# F# A# C#
Fingerpicked

Intro and Verses Tab:

c#|-------------0----0----0----0----------0----0------------------------|
A#|-0--3--5--3--0----0----0----0----0-----0----0------------------------|
F#|-4-----------4----4----4----4----2--4--2----0----0----0----5----5----|
C#|-------------------------------------------------2----2----5----5----|
F#|-0-----0-----0----0----0----0----2--4--2----0----2----2----5----5----|
C#|-------------------------------------------------2----2----5----5----|

c#|-------------0----0--------------------0----0------------------------|
A#|----3--5--3--0----0----0----0----0-----0----0------------------------|
F#|-4-----------4----4----0h2-------2--4--2----0----0----0----5----5----|
C#|-------------------------------------------------2----2----5----5----|
F#|-0-----0-----0----0----0---------2--4--2----0----2----2----5----5----|
C#|-------------------------------------------------2----2----5----5----|

c#|---------------------------------------------------------------------|
A#|-------------------------------------------------2----2----1----1----|
F#|-------------------------------------------------0----0----0----0----|
C#|-------------------------------------------------2----2----2----2----|
F#|-------------------------------------------------2----2----2----2----|
C#|---------------------------------------------------------------------|
                       Second ending at " I'll miss you more this time "


Chorus:

c#|--------------------------------------------------------------------------------|
A#|-1----1----0----0----1----1----0----0----1----1----0----0----2----2----1----1---|
F#|-0----0----0----0----0----0----0----0----0----0----0----0----0----0----0----0---|
C#|-2----2----0----0----2----2----0----0----2----2----0----0----2----2----2----2---|
F#|-0----0----0----0----0----0----0----0----0----0----0----0----2----2----2----2---|
C#|--------------------------------------------------------------------------------|


c#|--------------------------------------------------------------------------|
A#|-1----1----0----0----1----1----0----0----1----1----3----3----2----2----1--|
F#|-0----0----0----0----0----0----0----0----0----0----0----0----0----0----0--|
C#|-2----2----0----0----2----2----0----0----2----2----4----4----2----2----2--|
F#|-0----0----0----0----0----0----0----0----0----0----4----4----2----2----0--|
C#|--------------------------------------------------------------------------|

Song structure and lyrics:

Intro

Verse 1: 
You were standing there       fire in your eyes
As you held me in             said sorry I didn't write
We've got seven days          till we say good bye
Back to separate ways         I'll miss you more this time

Chorus:
So won't you stay             till the morning
I've been frozen since        that night you sang with me
One more day                  for you to hold me 
cause I don't know when       I'll see you again

Intro again

Verse 2:
How was I to guess            I'd still be on your mind
Enough to bring you here      and prove I wasn't right
We don't need to know         the future isn't ours
When we both let go           I'll hear you in the bars

Chorus:

Intro (1st line only)
************************************

| /   slide up
| \   slide down
| h   hammer-on
| p   pull-off
| ~   vibrato
| +   harmonic
| x   Mute note
| b   Bend
| pb  Pre-bend
| br  Bend release
| pbr Pre-bend release
| brb Bend release bend

************************************

            
            
Suggest correction
Creating personal tab
Creating personal tab
You can edit any tab online and save it as your Personal.

You can edit, replace or remove any tab part or add personal notes – all changes will be seen only by you.

Personal tabs can be accessed anytime from any device, even offline.
Learn more »
Give kudos to tab author, rate the tab!
1 2 3 4 5
comments
print report bad tab
1 comment total.
0 reply
gracendechant 10 Apr 12, 2016 05:13 PM

How do I tune open G, down a half step?

guest
Wanna post a correction for this tab? Suggest correction