Oops, an error
Loading. Please wait.

Be Mine Bass Tab

2,901 views 6 this week
1 commentread comment
1 2 3 4 5
please rate
add to favorites
launch autoscroll
font size
0
reset
guitar tuner
Autoscroll
slow
fast
+/-
esc
set tempo
stop
Help us to improve Ultimate-Guitar.com Take our survey!
×
Author
Difficulty
novice
Artist name: Ellie Goulding & Erik Hassle
Song name: Be Mine (Robyn acoustic cover)
Instrument: Bass

Hello my lovelies! First tabs on here, and I know this has become a very popular song so 
thought I may as well make some bass tabs :) Enjoy!

Verses:

G|----------------------------------------------------------------|
D|----------------------------------------------------------------|
A|----------------------------------------------------------------|
E|44-------------666--------------44-------------666--------------|

G|----------------------------------------------------------------|
D|----------------------------------------------------------------|
A|----------------------------------------------------------------|
E|44-----466------22-----222------44-----466------22----24~-------|

Chorus 1

G|----------------------------------------------------------------|
D|----------------------------------------------------------------|
A|----------------------------------------------------------------|
E|44-----466------22-----222------44-----466------22-----222------|

Chorus 2

G|----------------------------------------------------------------|
D|----------------------------------------------------------------|
A|----------------------------------------------------------------|
E|44-----422------66-----622------44-----466------22-----222------|

Interlude

G|------------------------------------------------------------------|
D|------------------------------------------------------------------|
A|------------------------------------------------------------------|
E|4446666222266666444666622226666644466662222666664446666222266666

G|----------------------------------------------------------------|
D|----------------------------------------------------------------|
A|----------------------------------------------------------------|
E|444666622226666644466662222666664446666222266666444-------------|

Alternitavely:
G|------------------------------------------------------------------|
D|------------------------------------------------------------------|
A|---3333----33333---3333----33333---3333-----3333---3333----33333--|
E|444----2222-----444----2222-----444----22222----444----2222-------|

G|----------------------------------------------------------------|
D|----------------------------------------------------------------|
A|---3333----33333---3333----33333---3333----33333----------------|
E|444----2222-----444----2222-----444----2222-----444-------------|
Suggest correction
Give kudos to tab author, rate the tab!
1 2 3 4 5
comments
print report bad tab
1 comment total.
0 reply
therosevaults 10 wrote on December 6 2010, 03:27 pm

i'm sorry bo so out of key it's stupid!

guest
You may want to rate the tab now too:
select rating
Wanna post a correction for this tab? Suggest correction