Oops, an error
Loading. Please wait.

Guns N Horses Bass Tab

3,080 views 3 this week
no commentswrite comment
1 2 3 4 5
2 more votes to show rating
add to favorites
launch autoscroll
font size
0
reset
guitar tuner
Autoscroll
slow
fast
+/-
esc
set tempo
stop
Help us to improve Ultimate-Guitar.com Take our survey!
×
Author
Ellie Goulding – Guns N Horses Bass tab

Don’t Play in Intro

Verse
You’re so quiet…
-----------------------------)
-----------------------------) (Don’t Play)
-----------------------------)
-----------------------------)

Let’s join Forces…
-----------------------------)
-----------------------------) X4
-------5-7--7----------------)
--5-5----------0--3----------)

I left my House… 
---------------------------------)
---------------------------------) X2
--3-3--------------------------2-)
---------0-3-3-3--5-5---3-5-5----)

Chorus
---------------------------------)
---------------------------------) X3
-3-3--3--5-5--5------------------)
-----------------0-0--0--3-3--3--)

I’d do it all…
---------------------------------)
---------------------------------) 
-3-3--3--5-5--5------------------)
-----------------0-0--0--0-0--0--)

Verse
-----------------------------)
-----------------------------) X2
-------5-7--7----------------)
--5-5----------0--3----------)

Wait…

Play it down…
----------------------------------)
----------------------------------) 
----------------------------------)
--5-5-5-5-5-5-5-5-0-0-0-0-0-0-0-0-)

--------------------------)
--------------------------) 
--------------------------)
--5-5-5-5-5-5-5-5-0-0-0-0-)

-----------------------------)
-----------------------------) X2
-------5-7--7----------------)
--5-5----------0--3----------)

I left my house…
---------------------------------)
---------------------------------) X2
--3-3--------------------------2-)
---------0-3-3-3--5-5---3-5-5----)

Chorus
---------------------------------)
---------------------------------) X3
-3-3--3--5-5--5------------------)
-----------------0-0--0--3-3--3--)

I’d do it all…
---------------------------------)
---------------------------------) 
-3-3--3--5-5--5------------------)
-----------------0-0--0--0-0--0--)

Don’t play in the Bridge

Chorus
---------------------------------)
---------------------------------) X3
-3-3--3--5-5--5------------------)
-----------------0-0--0--3-3--3--)

I’d do it all…
---------------------------------)
---------------------------------) 
-3-3--3--5-5--5------------------)
-----------------0-0--0--0-0--0--)

I’d do it all for you…
-----------------)
-----------------) Till End… 
-----------------)
-0-0--0--0-0--0--)
Suggest correction
Give kudos to tab author, rate the tab!
1 2 3 4 5
comments
print report bad tab
guest
You may want to rate the tab now too:
select rating
Wanna post a correction for this tab? Suggest correction