Oops, an error
Loading. Please wait.

Guns N Horses Tab

24,773 views 18 this week
1 commentread comment
1 2 3 4 5
accurate
x 12
add to favorites
launch autoscroll
font size
0
reset
how to read this tab
guitar tuner
Tab Pro tools
  • play this tab
  • loop segment
  • change instrument
  • show fretboard
  • metronome
×
Best way to learn
"Guns N Horses"
Autoscroll
slow
fast
+/-
esc
set tempo
stop
Difficulty
intermediate
Ellie Goulding

Guns and Horses

Strumming pattern can be figured out

Intro/Verse

E|-----0-------0----|
B|-----8-------8----|
G|-----9-------0----|
D|-----10------9----|
A|---0---------10---|
E|------------0-----|

" left my house..."

Bridge

E|-0----3----0---|
B|-1----0----0---|
G|-0----0----0---|
D|-2----0----0---|
A|-3----2----4---|
E|------3----5---|

Chorus/outro

E|--------------|--0--0---0----0-|
B|--------------|--0--0---0----0-|
G|--------------|--0--0---11---0-|
D|--------------|--9--12--12---12|
A|--------------|--6--12--10---12|
E|-0-0-0-0-0----|--7--10--0----10|

             OR

E|--------------|--0--0---0----0-|
B|--------------|--0--0---0----0-|
G|--------------|--8--14--11---14|
D|--------------|--9--12--12---12|
A|--------------|--6--12--10---12|
E|-0-0-0-0-0----|--7--10--0----10|

The first one is right but the second sounds nice too


Breakdown

E--0----0----0----|--0----0----0----|
B--1----3----1----|--1----3----0----|
G--0----0----2----|--0----0----0----|
D--2----4----2----|--2----4----2----|
A--3----5----0----|--3----5----2----|
E-----------------|------------0----|

Verse
Bridge
Chorus
Verse
Bridge
Chorus
Breakdown
Chorus/outro

It's all in there just needs to be figured out.  This is based on an acoustic
i saw, not the album version, havn't heard the album version in a while so not sure how 
fits in.

Laters on the Menjay!
comments
print report bad tab
1 comment total.
+3 reply
campbell829@hot wrote on June 24 2010, 02:23 pm

I wrote this tab and made a mistake. Should be:

E|--------------|--0--0---0----0-|
B|--------------|--0--0---0----0-|
G|--------------|--0--0---11---0-|
D|--------------|--10-12--12---12|
A|--------------|--7--12--10---12|
E|-0-0-0-0-0----|--8--10--0----10|

I want to post or [tab]
guest
You may want to rate the tab now too:
select rating
Please do not post tabs as comments. Select "correction" instead!