Oops, an error
Loading. Please wait.

Lights Bass Tab

version 1
version 1

Whole song

8,576 views 15 this week
3 commentsread comments
1 2 3 4 5
accurate
x 4
add to favorites
launch autoscroll
font size
0
reset
guitar tuner
Autoscroll
slow
fast
+/-
esc
set tempo
stop
Help us to improve Ultimate-Guitar.com Take our survey!
×
Author
Difficulty
-------------------------------------------------------------------------------
                                       Lights - Ellie Goulding
-------------------------------------------------------------------------------
I was looking for the tab of this song but I couldn't find it so I just looked
up in youtube and found a good bass cover video of it and decided to tab it out.

*****All credit goes to Florain. And I want to apologize because I didn't ask
for permission.*****

Florain channel: http://www.youtube.com/user/florainbass
Florain's Bass cover Video: http://www.youtube.com/watch?v=VuxiRNvXDc8

Tabbed by:thatoneguy123

Notes:
On some part of the song you can hear the string squeak sound on some parts
of the song and its usually on 11-9-7

Use a pick for this song

\ slide down
/ slide up

Tuning: Standard... I think.

0:10-0:41
G|--------------------------|
D|-11(x8)-9(x8)-7(x8)-------|
A|--------------------9(x8)-|
E|--------------------------|

G|-----------------------------|
D|-7/-11(x8)-9(x8)-7(x8)-------|
A|-----------------------9(x8)-|
E|-----------------------------|(x3)

Chorus
0:42-0:57
G|-------------------------|
D|-------------7(x8)-4(x8)-|
A|-4(x8)-2(x8)-------------|
E|-------------------------|(x2)

The second time you play 9th fret only once on the A sting.
0:58-1:13
G|--------------------------|
D|-11(x8)-9(x8)-7(x8)-------|
A|--------------------9(x8)-|
E|--------------------------|(x2)

*Repeat from the intro.

At 2:26-2:32 play this
G|----------------------|
D|-------------7(x8)----|
A|-4(x8)-2(x8)-------9\-|
E|----------------------|

Then play this and the second time don't slide
G|-----------------------------|
D|-1/-11(x8)-9(x8)-7(x8)-------|
A|-----------------------9(x8)-|
E|-----------------------------|

*Repeat from chorus

3:14-3:22
G|-----------------------------|
D|-11(x8)-13(x8)-14(x8)-16(x8)-|
A|-----------------------------|
E|-----------------------------|

The End.

*****All credit goes to Florain*****
Suggest correction
comments
print report bad tab
3 comments total.
0 reply
Thinge 10 wrote on October 7 2012, 08:55 am

Everything is a string too high. You've probably been thrown because he's playing a 5-string bass. The top string isn't a low E, the second string is. So everything in the tab needs to go down a string.

0 reply
xsqueakydevli 10 wrote on November 17 2014, 08:09 pm

What Thinge said. :)

0 reply
xsqueakydevli 10 wrote on November 17 2014, 08:10 pm

Lack of accuracy. This tab is off by one string, but you might have already know this. Other than that it seems pretty accurate!

guest
You may want to rate the tab now too:
select rating
Please do not post tabs as comments. Select "correction" instead!