Oops, an error
Loading. Please wait.

Lights Bass

version 2
version 2

Whole song

1,509 views 1 this week
no commentswrite comment
1 2 3 4 5
2 more votes to show rating
add to favorites
launch autoscroll
font size
0
reset
guitar tuner
×
Best way to learn
"Lights"
Autoscroll
slow
fast
+/-
esc
set tempo
stop
Author
Difficulty
novice
Artist: Ellie Goulding
Song: Lights
Tabbed by: ESPLTDBASSIST
Email: cvdofner@gmail.com

0:10-0:40
G|--------------------------|
D|--------------------------|
A|-11(x8)-9(x8)-7(x8)-------| 
E|--------------------9(x8)-|

0:41-1:11
G|-----------------------------|
D|-----------------------------|
A|-7/-11(x8)-9(x8)-7(x8)-------|
E|-----------------------9(x8)-|

1:12-1:43
G|--------------------------|
D|--------------------------|
A|-11(x8)-9(x8)-7(x8)-------| 
E|--------------------9(x8)-|

1:44-3:20
G|-----------------------------|
D|-----------------------------|
A|-7/-11(x8)-9(x8)-7(x8)-------|
E|-----------------------9(x8)-|
Suggest correction
Give kudos to tab author, rate the tab!
1 2 3 4 5
comments
print report bad tab
guest
You may want to rate the tab now too:
select rating
Wanna post a correction for this tab? Suggest correction