Oops, an error
Loading. Please wait.

Still Falling For You Tab

244 views 12 this week
no commentswrite comment
1 2 3 4 5
3 more votes to show rating
add to favorites
launch autoscroll
font size
0
reset
how to read this tab
guitar tuner
Autoscroll
slow
fast
+/-
esc
set tempo
stop
Help us to improve Ultimate-Guitar.com Take our survey!
×
Author
Difficulty
Tuning
novice
D# G# C# F# A# D#
About this tab version
Better voicing in D with Tuning half step down. Was this info helpful? Yes No
[Intro]

    D                                         D
D#|-----2-------3-------5-------2-------3--|-----2-------3-------5-------2----------|
A#|-----3-------3-------3-------3-------3--|-----3-------3-------3-------3----------|
F#|-----2-------2-------2-------2-------2--|-----2-------2-------2-------2----------|
C#|-0--------0-------0-------0-------0-----|--0-------0-------0-------0-------------|
G#|----------------------------------------|----------------------------------------|
D#|----------------------------------------|----------------------------------------|


[Verse]

    D                                         D
D#|-----2-------3-------5-------2-------3--|-----2-------3-------5-------2----------|
A#|-----3-------3-------3-------3-------3--|-----3-------3-------3-------3----------|
F#|-----2-------2-------2-------2-------2--|-----2-------2-------2-------2----------|
C#|-0--------0-------0-------0-------0-----|--0-------0-------0-------0-------------|
G#|----------------------------------------|----------------------------------------|
D#|----------------------------------------|----------------------------------------|


    Bm7                                      Bm7
D#|-----2-------3-------5-------2-------3--|-----2-------3-------5-------2----------|
A#|-----3-------3-------3-------3-------3--|-----3-------3-------3-------3----------|
F#|-----2-------2-------2-------2-------2--|-----2-------2-------2-------2----------|
C#|----------------------------------------|----------------------------------------|
G#|-2--------2-------2-------2-------2-----|-2--------2-------2-------2-------------|
D#|----------------------------------------|----------------------------------------|


    G                                        Asus4
D#|-----2-------3-------5-------2-------3--|-----2-------2-------0-------0----------|
A#|-----3-------3-------3-------3-------3--|-----3-------3-------3-------3----------|
F#|-----0-------0-------0-------0-------0--|-----2-------2-------2-------2----------|
C#|----------------------------------------|----------------------------------------|
G#|----------------------------------------|-0--------0-------0-------0-------------|
D#|-3--------3-------3-------3-------3-----|----------------------------------------| 
Suggest correction
Give kudos to tab author, rate the tab!
1 2 3 4 5
comments
print report bad tab
guest
You may want to rate the tab now too:
select rating
Wanna post a correction for this tab? Suggest correction