Oops, an error
Loading. Please wait.

Still Falling For You Chords

version 2
version 2

Whole song

  • Easy, simple and accurate chords adapted to standard tuning involving capo.
  • Tab for Intro, Verse and Pre-Chorus and alternativ... Show more
  • This is the album version plus this version requires No Capo.
2,923 views 57 this week
no commentswrite comment
1 2 3 4 5
1 last vote to show rating
add to favorites
launch autoscroll
font size
0
reset
transpose
0
reset
simplify chords
display chords
guitar tuner
Autoscroll
slow
fast
+/-
esc
set tempo
stop
Help us to improve Ultimate-Guitar.com Take our survey!
×
Author
Difficulty
Capo
novice
1st fret
About this tab version
Tab for Intro, Verse and Pre-Chorus and alternative accurate chords for strumming. Was this info helpful? Yes No
[Intro]

    C                                         C
D#|-----0-------1-------3-------0-------1--|-----0-------1-------3-------0----------|
A#|-----1-------1-------1-------1-------1--|-----1-------1-------1-------1----------|
F#|----------------------------------------|----------------------------------------|
C#|----------------------------------------|----------------------------------------|
G#|-3--------3-------3-------3-------3-----|-3--------3-------3-------3-------------|
D#|----------------------------------------|----------------------------------------|


[Verse]

    C                                         C
D#|-----0-------1-------3-------0-------1--|-----0-------1-------3-------0----------|
A#|-----1-------1-------1-------1-------1--|-----1-------1-------1-------1----------|
F#|----------------------------------------|----------------------------------------|
C#|----------------------------------------|----------------------------------------|
G#|-3--------3-------3-------3-------3-----|-3--------3-------3-------3-------------|
D#|----------------------------------------|----------------------------------------|


    Am7                                      Am7
D#|-----0-------1-------3-------0-------1--|-----0-------1-------3-------0----------|
A#|-----1-------1-------1-------1-------1--|-----1-------1-------1-------1----------|
F#|----------------------------------------|----------------------------------------|
C#|----------------------------------------|----------------------------------------|
G#|-0--------0-------0-------0-------0-----|-0--------0-------0-------0-------------|
D#|----------------------------------------|----------------------------------------|


    F                                        Gsus4
D#|-----0-------1-------3-------0-------1--|----------------------------------------|
A#|-----1-------1-------1-------1-------1--|-----5-------5-------3-------3----------|
F#|----------------------------------------|-----5-------5-------5-------5----------|
C#|----------------------------------------|----------------------------------------|
G#|----------------------------------------|----------------------------------------|
D#|-1--------1-------1-------1-------1-----|-3--------3-------3-------3-------------|


[Verse 1]

C
Fire and ice

This love is like fire and ice
                   Am7
This love is like rain and blue skies

This love is like sun on the rise
                  F
This love got me rolling the dice
              Gsus4
Don't let me lose
                   C
Still falling for you

Still falling for you


[Verse 2]

C
Beautiful mind

Your heart got a story with mine
                   Am7
Your heart got me hurting at times

Your heart gave me new kind of highs
                   F
Your heart got me feeling so fine
            Gsus4
So what to do
                   C
Still falling for you

Still falling for you


[Pre-Chorus]

C
It took us a while

With every breath a new day
                  Am7
With love on the line

We've had our share of mistakes
     F                            Gsus4
But all your flaws and scars are mine
                   C
Still falling for you
                   C
Still falling for you


[Chorus]

                Am7
And just like that
        F
All I breathe
       C
All I feel
                 Gsus4
You are all for me

I'm in
                Am7
And just like that
        F
All I breathe
       C
All I feel
                 Gsus4
You are all for me
                                  F                 Gsus4
No one can lift me, catch me the way that you do
                       C
I'm still falling for you


[Verse 3]

C
Brighter than gold

This love shining brighter than gold
                   Am7
This love is like letters in bold

This love is like out of control
                     F
This love is never growing old
             Gsus4
You make it new
                   C
Still falling for you
                   C
Still falling for you


[Pre-Chorus]

C
It took us a while

Because we were young and unsure
                  Am7
With love on the line

What if we both would need more
     F                            Gsus4
But all your flaws and scars are mine
                   C
Still falling for you

(Still falling for you)
                   C
Still falling for you


[Chorus]

                Am7
And just like that
        F
All I breathe
       C
All I feel
                 Gsus4
You are all for me

I'm in
                Am7
And just like that
        F
All I breathe
       C
All I feel
                 Gsus4
You are all for me
                                  F               Gsus4
No one can lift me, catch me the way that you do
                       C
I'm still falling for you


[Bridge]

 Am7                         F
Falling, crash into my arms
 C
Love you like this
        G
Like a first kiss
           F
Never let go
 Am7                   G
Falling, crash into my arms
 F                      Gsus4
Never breaking what we got
               C
Still falling for you
               Am7
Still falling for...


[Chorus]

                Am7
And just like that
        F
All I breathe
       C
All I feel
                 Gsus4
You are all for me

I'm in
                Am7
And just like that
        F
All I breathe
       C
All I feel
                 Gsus4
You are all for me

(All for me)


[Outro]

                Am7
And just like that
               F
All I feel is you
               C
All I feel is you
                 Gsus4
You are all for me

(I’m still falling...)
                Am7
And just like that
               F
All I feel is you
               C
All I feel is you
                 Gsus4
You are all for me
                                  F               Gsus4
No one can lift me, catch me the way that you do
                       C
I’m still falling for you...
Suggest correction
Give kudos to tab author, rate the tab!
1 2 3 4 5
comments
print report bad tab
guest
You may want to rate the tab now too:
select rating
Wanna post a correction for this tab? Suggest correction