Oops, an error
Loading. Please wait.

The Writer Tab

13,398 views 12 this week
no commentswrite comment
1 2 3 4 5
please rate
add to favorites
launch autoscroll
font size
0
reset
how to read this tab
guitar tuner
Autoscroll
slow
fast
+/-
esc
set tempo
stop
Help us to improve Ultimate-Guitar.com Take our survey!
×
Author
Difficulty
novice
Intro/Verse
e|------------------------|
B|9/10-5/777777-222555555-|
G|9/11-6/777777-222444444-|
D|9/11-6/777777-222666666-|
A|7/9--4/555555-000444444-|
E|------------------------|x3

e|-------------------|
B|222333333333222222-|
G|222444444444222222-|
D|222444444444222222-|
A|000222222222000000-|
E|-------------------|x1

If you find sliding the chords too tricky, then play this which sounds pretty much as good
e|------------------------|
B|9/10-5/777777-222555555-|
G|9/11-6/777777-222444444-|
D|------------------------|
A|------------------------|
E|------------------------|x3

e|-------------------|
B|222333333333222222-|
G|222444444444222222-|
D|-------------------|
A|-------------------|
E|-------------------|x1

Break between Verse 1 and 2 I think is like this
e|----------------------|
B|9/10-5/777777-3332222-|
G|9/11-6/777777-4442222-|
D|9/11-6/777777-4442222-|
A|7/9--4/555555-2220000-|
E|----------------------|x1

or

e|----------------------|
B|9/10-5/777777-4442222-|
G|9/11-6/777777-4442222-|
D|----------------------|
A|----------------------|
E|----------------------|x1

Verse again

Pre-Chorus "But i've got a plan"
e|2~-4~-5~-|
B|3~-5~-7~-|
G|4~-6~-7~-|
D|4~-6~-7~-|
A|2~-4~-5~-|
E|---------|

Chorus
e|000000222222777777555555-|
B|000000222222777777555555-|
G|111111222222777777666666-|
D|222222444444999999777777-|
A|222222444444999999777777-|
E|000000222222777777555555-|

e|000000222222777777555444-|
B|000000222222777777555444-|
G|111111222222777777666555-|
D|222222444444999999777666-|
A|222222444444999999777666-|
E|000000222222777777555444-|

e|222222777777777777555555-|
B|222222777777777777555555-|
G|222222777777777777666666-|
D|444444999999999999777777-|
A|444444999999999999777777-|
E|222222777777777777555555-|

"But its too hard to ask..."
e|0--4--2~----0~-----|
B|2--5--3~----0~-----|
G|2--4--4~----1~-----|
D|2--6--4~----2~-----|
A|0--4--2~----2~-----|
E|------------0~-----|

During the "You wait I wait" bit you play the verse :)

/=slide up

Enjoy!!!!!!
Suggest correction
What's this?
You can suggest a correction to this tab. Community and Mods will review your correction and vote to approve or reject it.
comments
We did not receive enough feedback on this tab! Please rate:
print report bad tab
1 2 3 4 5
guest
You may want to rate the tab now too:
select rating
Please do not post tabs as comments. Select "correction" instead!