Oops, an error
Loading. Please wait.

Too Much Love Chords

955 views 3 this week
no commentswrite comment
1 2 3 4 5
please rate
add to favorites
launch autoscroll
font size
0
reset
transpose
0
reset
simplify chords
display chords
guitar tuner
Autoscroll
slow
fast
+/-
esc
set tempo
stop
Help us to improve Ultimate-Guitar.com Take our survey!
×
Author
Difficulty
novice
First tab ever, I think it's pretty accurate. Please rate and comment.


Chords
A7 e|-----------------------------------|
   B|--2--------------------------------|
   G|-----------------------------------|
   D|--2--------------------------------|
   A|-----------------------------------|
   E|-----------------------------------|

E7 e|-----------------------------------|
   B|-----------------------------------|
   G|--1--------------------------------|
   D|-----------------------------------|
   A|--2--------------------------------|
   E|-----------------------------------|

B7 e|--2--------------------------------|
   B|-----------------------------------|
   G|--2--------------------------------|
   D|--1--------------------------------|
   A|--2--------------------------------|
   E|-----------------------------------|  

A e|-----------------------------------|
  B|--2--------------------------------|
  G|--2--------------------------------|
  D|--2--------------------------------|
  A|-----------------------------------|
  E|-----------------------------------|

C#m e|--4--------------------------------|
    B|--5--------------------------------|
    G|--6--------------------------------|
    D|--6--------------------------------|
    A|--4--------------------------------|
    E|--4--------------------------------|

B  e|--2---------------------------------|
   B|--4---------------------------------|
   G|--4---------------------------------|
   D|--4---------------------------------|
   A|--2---------------------------------|
   E|--2---------------------------------|

Bb e|--1---------------------------------|
   B|--3---------------------------------|
   G|--3---------------------------------|
   D|--3---------------------------------|
   A|--1---------------------------------|
   E|--1---------------------------------|

The intro
     A7                 E7  
   e|-------------------------------------| 
   B|----2-----2-2-2-2----0---0-0-0-0-----|
   G|----0-----0-0-0-0----1---1-1-1-1-----|  X2
   D|----2-----2-2-2-2----0---0-0-0-0-----|
   A|-0------0----------2----2------------|
   E|-------------------------------------|

Verse
     A7                 E7  
   e|-------------------------------------| 
   B|----2-----2-2-2-2----0---0-0-0-0-----|
   G|----0-----0-0-0-0----1---1-1-1-1-----|  X4
   D|----2-----2-2-2-2----0---0-0-0-0-----|
   A|-0------0----------2----2------------|
   E|-------------------------------------|

Bridge
   e|--2--2-2-2-2--2-2-2-2--2-2-2-2-2--2--|
   B|-------------------------------------|
   G|--2--2-2-2-2--2-2-2-2--2-2-2-2-2-2---|
   D|--1--1-1-1-1--1-1-1-1--1-1-1-1-1-1---|
   A|--2--2-2-2-2--2-2-2-2--2-2-2-2-2-2---|
   E|-------------------------------------|  

The pattern for the verse and chorus are the same but listen to the strumming on 
the track to get it right.
Also listen to the strumming on the bridge too so it matches the tab.
The whole of the chorus is strummed so you'll just have to listen to get it the same as the track.

Verse
A7
Where's that diamond ring you promised?
E7
My fingers looking bare
A7
Where's that valentine, be honest,
E7
The postman didn't bring it here
A7
The thing I wasn't looking for
E7
I found in your bedroom drawer
A7
The letter that you loved her better,
E7                     
Made me want you even, 

Bridge
B7
more


Chorus      
        A                   C#m
Because too much love's not good for you
     A                 C#m
Your heart can get too full
    A                  C#m
And too much love's an IOU
B
If I give you that, you'll
B      Bb            A7
Pay me back with the blues.
A7       E7     x2
Ooohhhh, yeah

A7
Where is all that time you promised?
E7
The first hand's on the three
A7
Where's the second hand, I'm bothered
E7
To see it stroking on her knee
A7
The thing I wasn't looking for
E7
I found in your bedroom drawer
A7
The letter that you loved her better,
E7
Made me want you even, 

Bridge
B7
more


Chorus      
        A                   C#m
Because too much love's not good for you
     A                 C#m
Your heart can get too full
    A                  C#m
And too much love's an IOU
B
If I give you that, you'll
B      Bb            A7
Pay me back with the blues.


A7                E7                              A7                 E7
Woah oh oh oh oh, yeah, yeah, yeah yeah, yeaaaah, Hoo oh oh oh oh oh
A7                E7                              A7                 E7
Woah oh oh oh oh, yeah, yeah, yeah yeah, yeaaaah, Hoo oh oh oh oh oh


Chorus      
        A                   C#m
Because too much love's not good for you
     A                 C#m
Your heart can get too full
    A                  C#m
And too much love's an IOU
B
If I give you that, you'll
B      Bb            A7      E7  
Pay me back with the blues.
Suggest correction
What's this?
You can suggest a correction to this tab. Community and Mods will review your correction and vote to approve or reject it.
comments
We did not receive enough feedback on this tab! Please rate:
print report bad tab
1 2 3 4 5
guest
You may want to rate the tab now too:
select rating
Please do not post tabs as comments. Select "correction" instead!