Oops, an error
Loading. Please wait.

Wish I Stayed Tab

version 6
version 6
9,353 views 1 this week
no commentswrite comment
1 2 3 4 5
x 4
add to favorites
launch autoscroll
font size
0
reset
how to read this tab
guitar tuner
Autoscroll
slow
fast
+/-
esc
set tempo
stop
Help us to improve Ultimate-Guitar.com Take our survey!
×
Author
Difficulty
novice
Cappo on 6th Fret, normal tuning

Intro and verses:
e|------0------0------0------0------0------0------0-0------------------------|
B|------1------1------1------1------1------1----------1----------------------|
G|---------------------------------------------------------------------------|
D|---3------3------3------3------3------3------3-----------------------------|
A|---------------------------------------------------------------------------|
E|---------------------------------------------------------------------------|

e|---------------------------------------------------------------------------|
B|------1------1------1------1------1------1-----1-1-1-----------------------|
G|------2------2------2------2------2------2-----2-2-2-----------------------|
D|---------------------------------------------------------------------------|
A|---0------0------0------0------0------0------0-----------------------------|
E|---------------------------------------------------------------------------|

Why can't we speak another language, one we all agree on
When men look outside, do they see houses
Instead of the fields they grew from
We are Constantly uprooted from them, making us tiresome and fearful
Can you get up right now, endeavor to freefall

You can fall if you want to It's just a matter of how far
You've treasured our home town
But you've forgotten where you are
And it will stay with you until you're mind's been found
and it has been found wondering around


Chorus

NOTE: G is not an actual G, I'm unsure of the chord but its:
-0-
-0-
-0-
-0-
-2-
-3-

Am7
-0-
-1-
-0-
-2-
-0-
-0-
             C                 
With that skipping rope, the trampoline
     G
The crafty smoke that made us choke
Am                          Am7
But we didn't give up hope
               C
It's just the simple ways, of getting paid
       G
The carelessnes of running away
Am                    Am7
I wish I stayed


Back to intro/verse

Patterns all aranged in my background
It's pillars and posts keeping this country on form
Letters were all sent with no addresses
So that people can't discover
Always undercover
Why do i always draw triangles
Instead of words this paper so deserves

You see
I don't own my clothes but i own my mind
And it's not what you've lost
But it's what you find.
I don't own my clothes but i own my mind
And it's not what you've lost
But it's what you find.

Chorus

cos you can fall if you want to
It's just a matter of how far
You've treasured our home town
But you've forgotten where you are
And it will stay with you until you're mind's been found
and it has been found wondering around

Chorus

Any questions email at sally.okelly@hotmail.co.uk
Suggest correction
comments
print report bad tab
guest
You may want to rate the tab now too:
select rating
Wanna post a correction for this tab? Suggest correction