Oops, an error
Loading. Please wait.

Jessica bass

version 1
version 1

Whole song

Interactive

2,552 views 3 this week
3 commentsread comments
1 2 3 4 5
x 7
add to favorites
×
Save as Personal and add changes to this tab that will be seen only by you. Learn more ›
×
You can save this tab as Personal to edit and correct it or add notes. All changes will be seen only by you. Learn more »
launch autoscroll
font size
0
reset
guitar tuner
edit
Autoscroll
slow
fast
+/-
esc
set tempo
stop
Author
Difficulty
----------------------------------------------------------------------------
			     Jessica - Elliot Minor
----------------------------------------------------------------------------

Tabbed By : Jordan
e-mail: jordangrainger@hotmail.co.uk

Tuning: standard

intro & verse:

G|---------------------------------------------------------------|
D|---------------------------------------------------------------| x 4
A|-22-022-022-02-55-055-055-055----------------------------------|
E|------------------------------055-055-055-055-033-033-022-022--|

Chorus :

G|----------------------------------|
D|----------------------------------| x2
A|-2-22220-----------------5-55550--|
E|---------5-55550-3-33330----------|

G|-------------------------------------------------------------------|
D|-------------------------------------------------------------------|
A|-5-55555-4-44444-7-77777-5-55555-2222222222222222------------------|
E|--------------------------------------------------2222222222222222-|

verse x 2

Chorus x 1

bridge:
                                                      only 1st time
G|---------------------------------------------------|---------------|
D|---------------------------------------------------|---------------|
A|-2-2-2-2-2-2-2-2-5-5-5-5-5-5-5-5-------------------|---------------| x2
E|---------------------------------5-5-5-5-5-5-5-5-5-|3-3-3-3-2-2-2-2|

Chorus x 1

Outro chorus':

G|---------------------------------------------------|       ------|
D|---------------------------------------------------| pause ------|
A|-2-22220-----------------5-55550-2-22220-----------|       -5555-|
E|---------5-55550-3-33330-----------------5-55550-3-|       ------|

G|-----------------------------------------------------------------------|
D|-----------------------------------------------------------------------|
A|-5-55555-4-44444-7-777777-5-55555-2222222222222222---------------------|
E|---------------------------------------------------22222222222222222---|

Chorus X1

there are different versions of this song going around with different endings i think so 
me if its a bit off but othewrwise i think its very close please rate

            
            
Suggest correction
Creating personal tab
Creating personal tab
You can edit any tab online and save it as your Personal.

You can edit, replace or remove any tab part or add personal notes – all changes will be seen only by you.

Personal tabs can be accessed anytime from any device, even offline.
Learn more »
comments
print report bad tab
3 comments total.
0 reply
ricco_madboy 47 Aug 04, 2007 09:47 AM

This is a very basic tab that just follows the chord changes from the main guitars, whereas there are some extra patterns that are inserted at times in the actual song.

0 reply
slapzbass 94 Aug 08, 2007 09:07 AM

short tab

0 reply
laurargh 10 Sep 30, 2007 11:07 PM

good

guest
You may want to rate the tab now too:
select rating
Wanna post a correction for this tab? Suggest correction