Oops, an error
Loading. Please wait.

Jessica tab

version 1
version 1

Whole song

Interactive

9,188 views 1 this week
2 commentsread comments
1 2 3 4 5
x 8
add to favorites
×
Save as Personal and add changes to this tab that will be seen only by you. Learn more ›
×
You can save this tab as Personal to edit and correct it or add notes. All changes will be seen only by you. Learn more »
launch autoscroll
font size
0
reset
how to read this tab
guitar tuner
edit
Autoscroll
slow
fast
+/-
esc
set tempo
stop
Author
Difficulty
Elliot Minor - Jessica (Demo Version) By Gary Butler
This is the first tab for Elliot Minors new song Jessica, I have tabbed the Demo Version 
the Single isn't out yet. It has pretty much the same Chords and Structure.. and once 
Single is released i will tab the rest out.
But untill then.. ENJOY!

Intro:
e--------------------------------------------|
b--------------------------------------------|
g--------------------------------------------|
d-4-(X14)-6/7-(X16)--------------------------|
a-2-------4/5-------7-(X16)--2-(X8)---4-(X8)-|
E-------------------5--------0--------2------|

Verse:(I don't think the 1st part of the verse has guitar init..but i put it the same as 
Single version just because it sounds better)
e--------------------------------------------|
b--------------------------------------------|
g--------------------------------------------|
d-4~~-4/7~~-7--------------------------------|
a-2~~-2/5~~-5-7~~--2~~--4~~------------------|
E-------------5~~--0~~--2~~------------------|

Verse part 2:
e-----------------------------------------------|
b-----------------------------------------------|
g-----------------------------------------------|
d-4-4-(X13)-4-7-(X15)-7-------------------------|
a-2-2-------2-5-------5-7-(X16)-7-2-(X8)-4-(X8)-|
E-----------------------5-------5-0------2------|
    pm        pm        pm        pm     pm

Pre-Chorus "Walk With Me"
e--------------------------------------------|
b--------------------------------------------|
g--------------------------------------------|
d-4-(X8)----------------7-(X8)---------------|
a-2------4-(X8)--5(X8)--5--------------------|
E--------2-------3---------------------------|

Chorus "Superstar"
e-------------------------------------------------------|
b-------------------------------------------------------|
g-------------------------------------------------------|
d--7-(X8)--------9-(X8)---------------------------------|
a--5------7-(X8)-7------9-(X4)-7-(X4)-5-(X16)-4(X16)----|
E---------5-------------7------5------3-------2---------|

THEN:
Verse
Verse part 2
Pre-Chorus "Walk With Me"
Chorus "Superstar"

Interlude:(the part that is the verse played on guitar)
e-------------------------------------------------------|
b-------------------------------------------------------|
g-4-4-6-7-7-6-7-7-6-7-9-11-11-9--11-11-9--11-11-9-11-12-|
d-------------------------------------------------------|
a-2-2-4-5-5-4-5-5-4-5-7--9-9--7--9--9--7--9--9--7-9--10-|
E-------------------------------------------------------|

Continued:
e-------------------------------------------------------|
b-------------------------------------------------------|
g-9-9-7-9-9-7-9-9-7-9-11-12-12-11-12--7-9-7-6-7---------|
d-------------------------------------------------------|
a-7-7-5-7-7-5-7-7-5-7-9--10-10-9--10--5-7-5-4-5---------|
E-------------------------------------------------------|

Interlude:(second time played)
e-------------------------------------------------------|
b-------------------------------------------------------|
g-4-4-6-7-7-6-7-7-6-7-9-11-11-9--11-11-9--11-11-9-11-12-|
d-------------------------------------------------------|
a-2-2-4-5-5-4-5-5-4-5-7--9-9--7--9--9--7--9--9--7-9--10-|
E-------------------------------------------------------|

Continued:
e-------------------------------------------------------|
b-------------------------------------------------------|
g-9-9-7-9-9-7-9-9-7-9-11--------------------------------|
d-------------------------------------------------------|
a-7-7-5-7-7-5-7-7-5-7-9-------------------4~~-----------|
E------------------------End interlude on 2~~-----------|

Then Its quite for a second or two till Alex sings "Ill never give it up"

THEN:
Pre-Chorus "Walk With Me"
Chorus "Superstar"
Pre-Chorus "Walk With me"

Pre-Chorus Part 2 "Jessica Come home with me tonight"
e--------------------------------------------|
b--------------------------------------------|
g--------------------------------------------|
d-4-(X8)-------------------------------------|
a-2------4-(X8)-5~~--------------------------|
E--------2------3~~--------------------------|

THEN:
Chorus "Superstar"
PRe-chorus "Walk With Me"
Chorus "Superstar"

            
            
Suggest correction
Creating personal tab
Creating personal tab
You can edit any tab online and save it as your Personal.

You can edit, replace or remove any tab part or add personal notes – all changes will be seen only by you.

Personal tabs can be accessed anytime from any device, even offline.
Learn more »
comments
print report bad tab
2 comments total.
0 reply
andyrussell 66 May 31, 2008 11:45 AM

u need a solo mate theres like the interlude then theres another solo but apart from that its gd :D

0 reply
Dehzz 10 Jan 13, 2009 10:20 AM

yeah, i agree. Solo please :D

guest
You may want to rate the tab now too:
select rating
Wanna post a correction for this tab? Suggest correction