Oops, an error
Loading. Please wait.

Jessica tab

version 2
version 2

Whole song

Interactive

2,763 views 1 this week
11 commentsread comments
1 2 3 4 5
x 4
add to favorites
×
Save as Personal and add changes to this tab that will be seen only by you. Learn more ›
×
You can save this tab as Personal to edit and correct it or add notes. All changes will be seen only by you. Learn more »
launch autoscroll
font size
0
reset
how to read this tab
guitar tuner
edit
Autoscroll
slow
fast
+/-
esc
set tempo
stop
Author
Difficulty
Tabbed by: Jason Stewart
Email: Dark21_Blade@hotmail.com

Band: Elliot Minor
Song: Jessica


Tuning: Standard



:::Alex:::

Intro

e|-------------------------------------|
B|-------------------------------------|
G|--4—-4/7---7-------------------------|
D|--4—-4/7---7---7---22222---44444-----|
A|--2—-2/5---5---7---22222---44444-----|
E|---------------5---00000---22222-----|

Pm                     xxx   xxxxx

Verse

e|----------------------------|
B|----------------------------|
G|--4--4/7----7/2-------------|
D|--4--4/7----7/2---2--4------|
A|--2—-2/5----5/0---2--4------|
E|------------------0--2------|



e|-------------------------|
B|-------------------------|
G|--4--7-------------------|
D|--4--7--7---2---4--------|
A|--2--5--7---2---4--------|
E|--------5---0---2--------|

Pm  x  x  x   x   x


Pre-chorus

e|----------------------------|
B|----------------------------|
G|--4--------7----------------|
D|--4--4--5--7----------------| x2
A|--2--4--5--5----------------|
E|-----2--3-------------------|


Chorus

e|---------------------------|
B|---------------------------|
G|--7------9-----------------|
D|--7—-7---9----9-7-5---4----|
A|--5--7---7----9-7-5---4----|
E|-----5--------7-5-3---2----|



Verse 2

e|---------------------------------|
B|---------------------------------|
G|-4~-------4--7-------------------|
D|-4~-------4--7--7--2--4----------|
A|-2~-------2--5--7--2--4----------|
E|----------------5--0--2----------|

Pm          x

Pre-chorus

e|----------------------------|
B|----------------------------|
G|--4--------7----------------|
D|--4--4--5--7----------------| x2
A|--2--4--5--5----------------|
E|-----2--3-------------------|


Chorus

e|---------------------------|
B|---------------------------|
G|--7------9-----------------|
D|--7—-7---9----9-7-5---4----|
A|--5--7---7----9-7-5---4----|
E|-----5--------7-5-3---2----|


Little melody: 

e|---------------------------------------------------------------------------|
B|---------------------------------------------------------------------------|
G|---------------------------------------------------------------------------|
D|---------------------------------------------------------------------------|
A|--2—2/4/5-5/4/5-5/4/5/7--9-9/7/9-9/7/9-9/7/9/10/7-7/5/7-7/5/7-7/5/7/9~~----|
E|---------------------------------------------------------------------------|



e|----------------------------------------------------14h15p14h15p14h15p14b--|
B|---------------------------------------------------------------------------|
G|-----------------------------------11----12-11-----------------------------|
D|-----------------11----12-11-14-12----14-------14--------------------------|
A|----12-10--14-12----14-----------------------------------------------------|
E|-14------------------------------------------------------------------------|



Pre-chorus

e|----------------------------|
B|----------------------------|
G|--4--------7----------------|
D|--4--4--5--7----------------| x2
A|--2--4--5--5----------------|
E|-----2--3-------------------|


Chorus

e|---------------------------|
B|---------------------------|
G|--7------9-----------------|
D|--7—-7---9----9-7-5---4----|
A|--5--7---7----9-7-5---4----|
E|-----5--------7-5-3---2----|



Pre-chorus

e|----------------------------|
B|----------------------------|
G|--4--------7----------------|
D|--4--4--5--7----------------| x2
A|--2--4--5--5----------------|
E|-----2--3-------------------|


Chorus

e|---------------------------|
B|---------------------------|
G|--7------9-----------------|
D|--7—-7---9----9-7-5---4----|
A|--5--7---7----9-7-5---4----|
E|-----5--------7-5-3---2----|

Solo:


e|---------------------------------------------------------------------------|
B|--------12-------12--------12-------12-------------------------------------|
G|--10-11----10-11-----10-11----10-11-----10-11-11-(14)----------------------|
D|---------------------------------------------------------------------------|
A|---------------------------------------------------------------------------|
E|---------------------------------------------------------------------------|



e|--10-------------------------------------------------------------------------|
B|--10-------------------------------------------------------------------------|
G|------12-11--------------------------------------11/12/14-----------12/14/16-|
D|------------12--------------------------11/12/14-----------12/14/16----------|
A|---------------12-------------10/12/14---------------------------------------|
E|------------------14—10/12/14------------------------------------------------|



e|-----------14/15/17----------19-19-19-19-19-19-----------------------------|
B|--14/15/17-------------------19-19-19-19-19-19-----------------------------|
G|---------------------21/(23)---------------------21/(23)/21----------------|
D|---------------------------------------------------------------------------|
A|---------------------------------------------------------------------------|
E|---------------------------------------------------------------------------|



e|----------7/9/10----------9/10/12------------10/12/14-----------12/14/15--22~~-|
B|--7/8/10----------8/10/12----------10/12/14------------12/14/15----------------|
G|-------------------------------------------------------------------------------|
D|-------------------------------------------------------------------------------|
A|-------------------------------------------------------------------------------|
E|-------------------------------------------------------------------------------|

Outro:

e|---------------------------|
B|---------------------------|
G|--7------9-----------------|
D|--7—-7---9----9-7-5---4----|
A|--5--7---7----9-7-5---4----|
E|-----5--------7-5-3---2----|

                        X


:::ED:::

Intro:

e|------------------------------5---------0--5----0----0----0----|
B|-332332332-3/7-775775-7-8-7-8-7—8--7----5----5--3----0----2----|
G|-444444444-4/7-777777-7-7-7-7---7--7---------------------------|
D|---------------------------------------------------------------|
A|---------------------------------------------------------------|
E|---------------------------------------------------------------|



e|---------------------------------|
B|-----------------2/3/5-----------|
G|---2-------2-----2/4/6-----------|
D|-2---5-4/5----4------------------|
A|--------------4------------------|
E|---------------------------------|



Verse:


Verse

e|----------------------------|
B|----------------------------|
G|--4--4/7----7/2-------------|
D|--4--4/7----7/2---2--4------|
A|--2—-2/5----5/0---2--4------|
E|------------------0--2------|



e|-------------------------|
B|-------------------------|
G|--4--7-------------------|
D|--4--7--7---2---4--------|
A|--2--5--7---2---4--------|
E|--------5---0---2--------|

Pm  x  x  x   x   x


Pre-chorus

e|----------------------------|
B|----------------------------|
G|--4--------7----------------|
D|--4--4--5--7----------------| x2
A|--2--4--5--5----------------|
E|-----2--3-------------------|


Chorus

e|---------------------------|
B|---------------------------|
G|--7------9-----------------|
D|--7—-7---9----9-7-5---4----|
A|--5--7---7----9-7-5---4----|
E|-----5--------7-5-3---2----|



Verse 2

e|---------------------------------|
B|---------------------------------|
G|-4~-------4--7-------------------|
D|-4~-------4--7--7--2--4----------|
A|-2~-------2--5--7--2--4----------|
E|----------------5--0--2----------|

Pm          x

Pre-chorus

e|----------------------------|
B|----------------------------|
G|--4--------7----------------|
D|--4--4--5--7----------------| x2
A|--2--4--5--5----------------|
E|-----2--3-------------------|


Chorus

e|---------------------------|
B|---------------------------|
G|--7------9-----------------|
D|--7—-7---9----9-7-5---4----|
A|--5--7---7----9-7-5---4----|
E|-----5--------7-5-3---2----|


Backing to little melody:


e|-----------------------------------------------------------------|
B|-----------------------------------------------------------------|
G|--4-4-4-4-4-4-4-4-7-7-7-7-7-7-7-7-7------------------------------|
D|--4-4-4-4-4-4-4-4-7-7-7-7-7-7-7-7-7--7-7-7-7-7-7-7-7-7-7--4---4--|
A|--2-2-2-2-2-2-2-2-5-5-5-5-5-5-5-5-5--7-7-7-7-7-7-7-7-7-7--4---4--|
E|-------------------------------------5-5-5-5-5-5-5-5-5-5--2---2--|


Pre-chorus

e|----------------------------|
B|----------------------------|
G|--4--------7----------------|
D|--4--4--5--7----------------| x2
A|--2--4--5--5----------------|
E|-----2--3-------------------|


Chorus

e|---------------------------|
B|---------------------------|
G|--7------9-----------------|
D|--7—-7---9----9-7-5---4----|
A|--5--7---7----9-7-5---4----|
E|-----5--------7-5-3---2----|



Pre-chorus

e|----------------------------|
B|----------------------------|
G|--4--------7----------------|
D|--4--4--5--7----------------| x2
A|--2--4--5--5----------------|
E|-----2--3-------------------|


Chorus

e|---------------------------|
B|---------------------------|
G|--7------9-----------------|
D|--7—-7---9----9-7-5---4----|
A|--5--7---7----9-7-5---4----|
E|-----5--------7-5-3---2----|


Solo Backing

e|----------------------------|
B|----------------------------|
G|--4--------7----------------|
D|--4--4--5--7----------------| x2
A|--2--4--5--5----------------|
E|-----2--3-------------------|


Outro:

e|---------------------------|
B|---------------------------|
G|--7------9-----------------|
D|--7—-7---9----9-7-5---4----|
A|--5--7---7----9-7-5---4----|
E|-----5--------7-5-3---2----|

                        X



| /  slide up
| \  slide down
| h  hammer-on
| p  pull-off
| ~  vibrato
| +  harmonic
| x  Mute note
===============================================================================

            
            
Suggest correction
Creating personal tab
Creating personal tab
You can edit any tab online and save it as your Personal.

You can edit, replace or remove any tab part or add personal notes – all changes will be seen only by you.

Personal tabs can be accessed anytime from any device, even offline.
Learn more »
comments
print report bad tab
11 comments total. Showing first comments.
0 reply
ricco_madboy 47 Jul 28, 2007 04:49 PM

"well what can i say this is all wrong!"

>:[

0 reply
sweetication 105 Jul 29, 2007 06:09 AM

actually if you could play guitar is it actually right its just hard!

0 reply
ricco_madboy 47 Jul 29, 2007 11:24 AM

Well, ignoring what you said about mine, you haven't got the solos on this right. They sound almost like it, but only through being a very vague imitation. Otherwise, there's nothing wrong with it.

guest
You may want to rate the tab now too:
select rating
Wanna post a correction for this tab? Suggest correction