Oops, an error
Loading. Please wait.

Parallel Worlds bass

version 1
version 1

Whole song

3,517 views 1 this week
no commentswrite comment
1 2 3 4 5
x 7
add to favorites
×
Save as Personal and add changes to this tab that will be seen only by you. Learn more ›
×
You can save this tab as Personal to edit and correct it or add notes. All changes will be seen only by you. Learn more »
launch autoscroll
font size
0
reset
guitar tuner
edit
Autoscroll
slow
fast
+/-
esc
set tempo
stop
Difficulty
This is my first tab, so I hope it is right :)

Key:
~ = Let ring
h = Hammer on
\ = Slide down

Intro (Piano and Violin until 0:02, then)
G|------------------------------|
D|------------------------------|
A|-4~---444---444---444---------|
E|------------------------------|

G|------------------------------|
D|------------------------------|
A|---------5-45454--------------|
E|22-2-2-2---------2-2-22-0~---0|

G|------------------------------|
D|------------------------------|
A|---------5-45454--------------|
E|22-2-2-2---------2-2-22-0-0-0-|

Verse (The light's playing up, again...)
G|----------------------------------------------|
D|----------------------------------------------|   2x
A|----------------------------------------------| 
E|222222222222-0000000000-5555555555-7777777777-|

Pre-Chorus (Trapped in your world...)
G|--------------------------------|
D|--------------------------------|
A|5-5-5-4--4-4-2--2-2-2-0-0-0-----|
E|--------------------------------|

G|--------------------------------|
D|--------------------------------|
A|5-5-5-44-4-4-2-4h2-4~-----------|
E|--------------------------------|

Chorus (I'm stuck in Parallel Worlds...)
G|--------------------------------|
D|--------------------------------|
A|---------5-45454----------------| 
E|22-2-2-2---------2-2-22-0~----0-|

G|--------------------------------|
D|--------------------------------|
A|---------5-45454----------------|
E|22-2-2-2---------2-2-22--0-0-0--|

G|-------------|
D|-------------|
A|-2--4--5--7--|
E|-------------| 

(Go..Go..It won't let me...)
G|--------------------------------|
D|--------------------------------|
A|-----------------5-4-2-4--------|
E|22-200-022-200-0----------------|

G|--------------------------------|
D|--------------------------------|
A|-----------------5-4-2-4--------|
E|22-200-022-200-0----------------|

Verse (Guitar only, until "Say once again it just proves to be difficult...")
G|--------------------------------------------|
D|--------------------------------------------| 
A|--------------------------------------------|
E|2222222222-0000000000-5555555555-7777777777-|

Pre-Chorus (Trapped in your world...)
G|--------------------------------|
D|--------------------------------|
A|5-5-5-4--4-4-2--2-2-2-0-0-0-----|
E|--------------------------------|

G|--------------------------------|
D|--------------------------------|
A|5-5-5-44-4-4-2-4h2-4~-----------|
E|--------------------------------|

Chorus (I'm stuck in Parallel Worlds...)
G|--------------------------------|
D|--------------------------------|
A|---------5-45454----------------| 
E|22-2-2-2---------2-2-22-0~----0-|

G|--------------------------------|
D|--------------------------------|
A|---------5-45454----------------|
E|22-2-2-2---------2-2-22--0-0-0--| 

G|-------------|
D|-------------|
A|-2--4--5--7--|
E|-------------| 

Riff (First Guitar Solo)
G|--------------------------------|
D|--------------------------------|
A|--------------------------------|
E|-2-2-22-2-0-00-000-7-7-77-7-5~-5| 

G|-------------------------------|
D|-------------------------------|
A|-------------------------------|
E|-2-2-22-2-0-000-000--7~--------| 

(Second Guitar Solo)
G|--------------------------------|
D|--------------------------------|
A|--------------------------------|
E|-2-2-22-2-0-00-000-7-7-77-7-5~-5| 

G|--------------------------------------|
D|--------------------------------------|
A|------------------------4h5-4h5-4~----|
E|-7777777777755555555555---------------| 

(I'm stuck in Parallel Worlds...)
G|---------------------------|
D|---------------------------|
A|-------5-------------------|
E|-2------------2-2-22-0-0-0-| 

G|--------------------------------|
D|--------------------------------|
A|---------5-45454----------------|
E|22-2-2-2---------2-2-22--0-0-0--| 

G|--------------------------------|
D|--------------------------------|
A|---------5-45454----------------|
E|22-2-2-2---------2-2-22--0-0-0--| 

G|--------------------------------|
D|--------------------------------|
A|---------5-45454----------------|
E|22-2-2-2---------2-2-22--0-0-0--| 

Outro
G|--------------------------------------------|
D|--------------------------------------------|
A|-2--4--5--7--8--10--12--14--16~-----16-16\1-|
E|--------------------------------------------| 

Please say if there are any mistakes.

            
            
Suggest correction
Creating personal tab
Creating personal tab
You can edit any tab online and save it as your Personal.

You can edit, replace or remove any tab part or add personal notes – all changes will be seen only by you.

Personal tabs can be accessed anytime from any device, even offline.
Learn more »
comments
print report bad tab
guest
Wanna post a correction for this tab? Suggest correction