Oops, an error
Loading. Please wait.

Parallel Worlds tab

version 1
version 1
5,960 views 3 this week
3 commentsread comments
1 2 3 4 5
x 3
add to favorites
×
Save as Personal and add changes to this tab that will be seen only by you. Learn more ›
×
You can save this tab as Personal to edit and correct it or add notes. All changes will be seen only by you. Learn more »
launch autoscroll
font size
0
reset
how to read this tab
guitar tuner
edit
Autoscroll
slow
fast
+/-
esc
set tempo
stop
Author
Difficulty
Elliot Minor - Parallel Worlds Intro and Chorus

By Gary Butler :D

Standard Tuning...This is my first ever tab... and its probly wrong.. but at least i tryed:D

The first bit with the keyboard behind
e----------------------------------------------------|
b----------------------------------------------------|
g----------------------------------------------------|
d-----7-------44----4----44--------------------------|
a-----4-------77----7----77--------------------------|
E----------------------------------------------------|

The intro that is the words to the chorus
e---------------------------------------------------------|
b---------------------------------------------------------|
g---------------------------------------------------------| X2
d---------11-12--11-12--11-12--11---7-7-7--9-6-6-6--------|
a--9 9 9--------------------------------------------------|
E---------------------------------------------------------|


Chords played Behind the Intro (Obviously is the same as the Chorus)
e--------------------------------------------------------|
b--------------------------------------------------------|
g--------------------------------------------------------| X2
d-11-(X8)----7-(X8)--------------9-(X8)------------------|
a-9----------5--------5-(X8)-----7-----------------------|
E---------------------7----------------------------------|

Verse one and two (Palm Muted, Except for last part of second verse)
e----------------------------------------------------------------|
b----------------------------------------------------------------|
g----------------------------------------------------------------| X2
d----11--(X16)--9--(x16)-----------------------------------------|
a----9----------7-------------7-(X16)----9--(X16)----------------|
E-----------------------------5----------7-----------------------|

Pre-Chorus
e-----------------------------------------------------------------|
b-----------------------------------------------------------------|
g-----------------------------------------------------------------|X1
d----7--(X4)---11-(X4)--9-(X4)------------------------------------|
a----5---------9--------7----------7--(X4)------------------------|
E----------------------------------3------------------------------|

Pre-Chorus Continued
e-----------------------------------------------------------------|
b-----------------------------------------------------------------|
g-----------------------------------------------------------------| X1
d----7--(X4)---11-(X4) -9-(X4)------------------------------------|
a----5----------9------7----------9--(X4)-------------------------|
E--------------------------------------7--------------------------|

Chorus
e-------------------------------------------------|
b-------------------------------------------------|
g-------------------------------------------------| X2
d-11-(X8)---7-(X8)-----------9-(X8)---------------|
a-9---------5--------5-(X8)--7--------------------|
E--------------------7----------------------------|

After Chorus
e------------------------------------------------|
b------------------------------------------------|
g------------------------------------------------| X1
d-9-(X4)-----11(X4)-----12-(X4)---14--(X4)-------|
a-7----------9----------10--------12-------------|
E------------------------------------------------|

Part after that (Go,Go it won't let me) Listen for timing.
e-----------------------------------------------------|
b-----------------------------------------------------|
g-----------------------------------------------------| X2
d--11-11--9-9---11-11-9--9----7-7-7-7-----------------|
a--9--9---7-7---9---9-7--7----5-5-5-5---9-9---11-11---|
E---------------------------------------7-7---9---9---|

First part of solo
e-------------------------------------------------------------------|
b-------------------------------------------------------------------|
g-------------------------------------------------------------------| X1
d-------------------------------------------------------------------|
a--9-9-9-12-9--7-9-7h9p7-----------------7-9-9-9-12-9-7-9-7h9p7-----|
E------------------------7-7-7-9-7-9-----------------------------7--|

Chords Behind first part of guitar solo
e--------------------------------------------------|
b--------------------------------------------------|
g--------------------------------------------------| X1
d-11--(X6)---9-(X6)--------------------------------|
a-9----------7---------9-(X6)----11-(X6)-----------|
E----------------------7---------9-----------------|
Continued
e-----------------------------------------------------|
b-----------------------------------------------------|
g-----------------------------------------------------| X1
d-11--(X6)----9-(X6)----------------------------------|
a-9-----------7---------9-(X6)------------------------|
E-----------------------7-----------------------------|

I'll try Work the other solo out later!!!!!!!!

Chorus After Solo
e----------------------------------------------------|
b----------------------------------------------------|
g----------------------------------------------------| X1
d-11-(X1)----7-(X1)--------------9-(X8)--------------|
a-9----------5--------5-(X8)-----7-------------------|
E---------------------7------------------------------|

Continued
e----------------------------------------------------|
b----------------------------------------------------|
g----------------------------------------------------| X2
d-11-(X8)----7-(X8)--------------9-(X8)--------------|
a-9----------5--------5-(X8)-----7-------------------|
E---------------------7------------------------------|

Final Chorus
e-----------------------------------------------------------|
b-----------------------------------------------------------|
g-----------------------------------------------------------| X2
d-11-(X8)----7-(X8)--------------9-(X8)---------------------|
a-9----------5--------5-(X8)-----7--------------------------|
E---------------------7-------------------------------------|

Outro
e-----------------------------------------------------------------------|
b-----------------------------------------------------------------------|
g-----------------------------------------------------------------------| X1
d-9-(X4)-----11(X4)-----12-(X4)---14--(X4)---16--(X4)-18 (X4)-19-(X4)---|
a-7----------9----------10--------12---------14-------16------17--------|
E-----------------------------------------------------------------------|

Continued
e-------------------|
b-------------------|
g-------------------| X1
d-20-(X4)--21-(X4)--|
a-18-------19-------|
E-------------------|

There ya go, Thats my attempt

Any Questions or anything Email me Garyzx7r@hotmail.com

Thank you.

            
            
Suggest correction
Creating personal tab
Creating personal tab
You can edit any tab online and save it as your Personal.

You can edit, replace or remove any tab part or add personal notes – all changes will be seen only by you.

Personal tabs can be accessed anytime from any device, even offline.
Learn more »
Give kudos to tab author, rate the tab!
1 2 3 4 5
comments
print report bad tab
3 comments total.
0 reply
MFZBen 126 Mar 24, 2007 06:06 AM

Needs a bit of work, thanks for putting in the effort though. Great tune

0 reply
21-Strings 58 Mar 28, 2007 08:50 AM

yeah i had a feeling it were wrong...but i just thought id try..cuz it wasn't there n its a good song:D

+1 reply
21-Strings 58 May 13, 2007 04:15 AM

My god..this is my own tab... n im beggining to hate my own creation.. Any1 who reads this i got a totally better version of this i tabbed out... n it sounds perfect to ear.. But im gunna upload it after my GCSEs are done:D...

guest
You may want to rate the tab now too:
select rating
Wanna post a correction for this tab? Suggest correction