Oops, an error
Loading. Please wait.

Parallel Worlds tab

version 2
version 2
9,550 views 1 this week
12 commentsread comments
1 2 3 4 5
x 15
add to favorites
×
Save as Personal and add changes to this tab that will be seen only by you. Learn more ›
×
You can save this tab as Personal to edit and correct it or add notes. All changes will be seen only by you. Learn more »
launch autoscroll
font size
0
reset
how to read this tab
guitar tuner
edit
Autoscroll
slow
fast
+/-
esc
set tempo
stop
Author
Difficulty
Artist: Elliot Minor
Song: Parallel Worlds

Tabbed by: Jason Stewart
Email: Dark21_Blade@hotmail.com

Tuning: Standard Tuning


Guitar One:

Intro Part one:

e|----------------------------------------------------------------|
B|----------------------------------------------------------------|
G|----------------------------------------------------------------|
D|---6----6666--6666--6666----------------------------------------|
A|---4—---4444--4444--4444----------------------------------------|
E|----------------------------------------------------------------|

e|----------------------------------------------------------------|
B|-10-9-10-10-----------------------------------------------------|
G|------------9h11-9-11-9-11-9--6-6h7-----------------------------|
D|------------------------------------9---------------------------|
A|---—------------------------------------------------------------|
E|----------------------------------------------------------------|

e|----------------------------------------------------------------|
B|-10-9-10-10-----------------------------------------------------|
G|------------9h11-9-11-9-11-9--6-6h7-----------------------------|
D|------------------------------------9-7-6---------7-------------|
A|---—------------------------------------------------------------|
E|----------------------------------------------------------------|


Verse

e|----------------------------------------------------------------|
B|----------------------------------------------------------------|
G|----------------------------------------------------------------|
D|----------------2-x16--4—x16------------------------------------|X2        
A|--4-x16--2-x16--0------2----------------------------------------|
E|--2------0------------------------------------------------------|

Pre-Chorus

e|----------------------------------------------------------------|
B|--3-------------------------------------------------------------|
G|--2-----------2-------------------------------------------------|
D|--0---4---2---2-------------------------------------------------|
A|------4---2---0-------------------------------------------------|
E|------2---0-----------------------------------------------------|

e|----------------------------------------------------------------|
B|--3-------------------------------------------------------------|
G|--2-------6-----------------------------------------------------|
D|--0---4---6-----------------------------------------------------|
A|------4---4-----------------------------------------------------|
E|------2---------------------------------------------------------|

Chorus

e|----------------------------------------------------------------|
B|----------------------------------------------------------------|
G|----------------------------------------------------------------| 
D|----------------7--7--7--7---2222--2222222----------------------|    
A|--4-4-4--444----5--4--5--4---0000--2222222----------------------| 
E|--2-0-2--222-----------------------0000000----------------------|
e|----------------------------------------------------------------|
B|----------------------------------------------------------------|
G|-4--6--7--9-----------------------------------------------------|
D|-x--x--x--x-----------------------------------------------------|
A|-2--4--5--7-----------------------------------------------------|
E|----------------------------------------------------------------|

e|----------------------------------------------------------------|
B|----------------------------------------------------------------|
G|----------------------------------------------------------------|
D|--44--22--44--22--77--77--44--66--------------------------------|X2
A|--44--22--44--22--55--44--22--44--------------------------------|
E|--22--00--22--00------------------------------------------------|


Verse 2

Palm Mute first time round. But not second.

e|----------------------------------------------------------------|
B|----------------------------------------------------------------|
G|----------------------------------------------------------------|
D|----------------------------------------------------------------|
A|--------------------2-4-2--------22-----22------22--------------|
E|--22-5--22-5--22-5--------5---00-----00-----00------------------|

Pm…………………………………………………………………………………………………………………………………………

e|----------------------------------------------------------------|
B|----------------------------------------------------------------|
G|----------------------------------------------------------------|
D|--2-4-2--------22----22----22----22-----------------------------|
A|--------4---00----00----00----00-----22-5--22-5--22-5-----------|
E|----------------------------------------------------------------|

Pm……………………………………………………………………………………………………………………………………………

Play again with no palm mute 

e|----------------------------------------------------------------|
B|----------------------------------------------------------------|
G|----------------------------------------------------------------|
D|----------------------------------------------------------------|
A|--------------------2-4-2--------22-----22------22--------------|
E|--22-5--22-5--22-5--------5---00-----00-----00------------------|

e|----------------------------------------------------------------|
B|----------------------------------------------------------------|
G|----------------------------------------------------------------|
D|--2-4-2--------22----22----22----22-----------------------------|
A|--------4---00----00----00----00-----22-5--22-5--22-5-----------|
E|----------------------------------------------------------------|


Pre-Chorus:

e|----------------------------------------------------------------|
B|--3-------------------------------------------------------------|
G|--2-----------2-------------------------------------------------|
D|--0---4---2---2-------------------------------------------------|
A|------4---2---0-------------------------------------------------|
E|------2---0-----------------------------------------------------|

e|----------------------------------------------------------------|
B|--3-------------------------------------------------------------|
G|--2-------6-----------------------------------------------------|
D|--0---4---6-----------------------------------------------------|
A|------4---4-----------------------------------------------------|
E|------2---------------------------------------------------------|

Chorus

e|----------------------------------------------------------------|
B|----------------------------------------------------------------|
G|----------------------------------------------------------------| 
D|----------------7--7--7--7---2222--2222222----------------------|    
A|--4-4-4--444----5--4--5--4---0000--2222222----------------------| 
E|--2-0-2--222-----------------------0000000----------------------|

e|----------------------------------------------------------------|
B|----------------------------------------------------------------|
G|-4--6--7--9-----------------------------------------------------|
D|-x--x--x--x-----------------------------------------------------|
A|-2--4--5--7-----------------------------------------------------|
E|----------------------------------------------------------------|


Solo

e|----------------------------------------------------------------|
B|----------------------------------------------------------------|
G|----------------------------------------------------------------|
D|------------2-4--4444-2-4-4p4p----------------------------------|
A|------2-4-2---------------------4-2222-4------------------------|
E|--2-5-----------------------------------------------------------|

e|----------------------------------------------------------------|
B|----------------------------------------------------------------|
G|----------------------------------------------------------------|
D|-4444-2-4-4p4p--------------------------------------------------|
A|------------ --4-2222-4-----------------------------------------|
E|----------------------------------------------------------------|

e|----------------------------------------------------------------|
B|---5h-7p-5h—7h-9p-7h—9h-10p-9h—10h-12p-10h--14-14b~-------------|
G|----------------------------------------------------------------|
D|----------------------------------------------------------------|
A|----------------------------------------------------------------|
E|----------------------------------------------------------------|


e|--12--10---------------------10h-12p-10h-12p-10h-12p-10h-12p----|
B|---------12--10-12-10-12b---------------------------------------|
G|----------------------------------------------------------------|
D|----------------------------------------------------------------|
A|----------------------------------------------------------------|
E|----------------------------------------------------------------|

e|-9h-12p-9h-12p-9h-12p-9h-12p------------------------------------|
B|----------------------------------------------------------------|
G|----------------------------------------------------------------|
D|----------------------------------------------------------------|
A|----------------------------------------------------------------|
E|----------------------------------------------------------------|


e|----------------------------------------------------------------|
B|----------------------------------------------------------------|
G|---------7------2222--------------------------------------------|
D|--4------7------2222--2222--------------------------------------|
A|--4------5------0000--2222--------------------------------------|
E|--2-------------------0000--------------------------------------|

e|----------------------------------------------------------------|
B|----------------------------------------------------------------|
G|----------------------------------------------------------------| 
D|----------------7--7--7--7---2222--2222222----------------------|    
A|--4-4-4--444----5--4--5--4---0000--2222222----------------------| 
E|--2-0-2--222-----------------------0000000----------------------|

e|----------------------------------------------------------------|
B|----------------------------------------------------------------|
G|----------------------------------------------------------------| 
D|----------------7--7--7--7---2222--2222222----------------------|    
A|--4-4-4--444----5--4--5--4---0000--2222222----------------------| 
E|--2-0-2--222-----------------------0000000----------------------|

Outro:

e|----------------------------------------------------------------|
B|----------------------------------------------------------------|
G|-4--6--7--9--11--12--14--16—-18~-----18-------------------------|
D|-x--x--x--x--x---x---x---x---x-~-----x--------------------------|
A|-2--4--5--7--9---10--12—14---16~-----16-------------------------|
E|----------------------------------------------------------------|

______________________________________________________________

Guitar Two:

Intro Part one:

e|----------------------------------------------------------------|
B|----------------------------------------------------------------|
G|----------------------------------------------------------------|
D|---6----6666--6666--6666----------------------------------------|
A|---4—---4444--4444--4444----------------------------------------|
E|----------------------------------------------------------------|

Intro Part 2

e|--------------------------------------------------------------|
B|--------------------------------------------------------------|
G|--------------------------------------------------------------| 
D|----------------7--7--7--7---2222--2222222--------------------|    
A|--4-4-4--444----5--4--5--4---0000--2222222--------------------| 
E|--2-0-2--222-----------------------0000000--------------------|


Verse

e|----------------------------------------------------------------|
B|----------------------------------------------------------------|
G|----------------------------------------------------------------|
D|----------------2-x16--4—x16------------------------------------|X2        
A|--4-x16--2-x16--0------2----------------------------------------|
E|--2------0------------------------------------------------------|

Pre-Chorus

e|----------------------------------------------------------------|
B|--3-------------------------------------------------------------|
G|--2-----------2-------------------------------------------------|
D|--0---4---2---2-------------------------------------------------|
A|------4---2---0-------------------------------------------------|
E|------2---0-----------------------------------------------------|

e|----------------------------------------------------------------|
B|--3-------------------------------------------------------------|
G|--2-------6-----------------------------------------------------|
D|--0---4---6-----------------------------------------------------|
A|------4---4-----------------------------------------------------|
E|------2---------------------------------------------------------|

Chorus

e|----------------------------------------------------------------|
B|----------------------------------------------------------------|
G|----------------------------------------------------------------| 
D|----------------7--7--7--7---2222--2222222----------------------|    
A|--4-4-4--444----5--4--5--4---0000--2222222----------------------| 
E|--2-0-2--222-----------------------0000000----------------------|
e|----------------------------------------------------------------|
B|----------------------------------------------------------------|
G|-4--6--7--9-----------------------------------------------------|
D|-x--x--x--x-----------------------------------------------------|
A|-2--4--5--7-----------------------------------------------------|
E|----------------------------------------------------------------|

e|----------------------------------------------------------------|
B|----------------------------------------------------------------|
G|----------------------------------------------------------------|
D|--44--22--44--22--77--77--44--66--------------------------------|X2
A|--44--22--44--22--55--44--22--44--------------------------------|
E|--22--00--22--00------------------------------------------------|


Verse 2

Guitar one plays on its own first time round but join in second time round with:

e|----------------------------------------------------------------|
B|----------------------------------------------------------------|
G|----------------------------------------------------------------|
D|----------------2-x16--4—x16------------------------------------|        
A|--4-x16--2-x16--0------2----------------------------------------|
E|--2------0------------------------------------------------------|


Pre-Chorus:

e|----------------------------------------------------------------|
B|--3-------------------------------------------------------------|
G|--2-----------2-------------------------------------------------|
D|--0---4---2---2-------------------------------------------------|
A|------4---2---0-------------------------------------------------|
E|------2---0-----------------------------------------------------|

e|----------------------------------------------------------------|
B|--3-------------------------------------------------------------|
G|--2-------6-----------------------------------------------------|
D|--0---4---6-----------------------------------------------------|
A|------4---4-----------------------------------------------------|
E|------2---------------------------------------------------------|

Chorus

e|----------------------------------------------------------------|
B|----------------------------------------------------------------|
G|----------------------------------------------------------------| 
D|----------------7--7--7--7---2222--2222222----------------------|    
A|--4-4-4--444----5--4--5--4---0000--2222222----------------------| 
E|--2-0-2--222-----------------------0000000----------------------|

e|----------------------------------------------------------------|
B|----------------------------------------------------------------|
G|-4--6--7--9-----------------------------------------------------|
D|-x--x--x--x-----------------------------------------------------|
A|-2--4--5--7-----------------------------------------------------|
E|----------------------------------------------------------------|


Solo Backing:

e|-------------------------|    |----------------------------|
B|-3333--------------------|    |----------------------------|
G|-2222---------------2222-| OR |-7777-----------------------| X2
D|-0000--4444--2222---2222-|    |-7777--4444--2222--7777-----|
A|-------4444--2222---0000-|    |-5555--4444--2222--7777-----|
E|-------2222--0000--------|    |-------2222--0000--5555-----|


::ONLY PLAY SECOND TIME AROUND::
e|------------------------|
B|------------------------|
G|-7777--------6666-------|
D|-7777--4444--6666-------|
A|-5555--4444--4444-------|
E|-------2222-------------|

Chorus

e|----------------------------------------------------------------|
B|----------------------------------------------------------------|
G|---------7------2222--------------------------------------------|
D|--4------7------2222--2222--------------------------------------|
A|--4------5------0000--2222--------------------------------------|
E|--2-------------------0000--------------------------------------|

e|----------------------------------------------------------------|
B|----------------------------------------------------------------|
G|----------------------------------------------------------------| 
D|----------------7--7--7--7---2222--2222222----------------------|    
A|--4-4-4--444----5--4--5--4---0000--2222222----------------------| 
E|--2-0-2--222-----------------------0000000----------------------|

(Lead guitar backing thing I am tabbing at the moment!!!!)

e|----------------------------------------------------------------|
B|----------------------------------------------------------------|
G|----------------------------------------------------------------| 
D|----------------7--7--7--7---2222--2222222----------------------|    
A|--4-4-4--444----5--4--5--4---0000--2222222----------------------| 
E|--2-0-2--222-----------------------0000000----------------------|

Outro:

e|----------------------------------------------------------------|
B|----------------------------------------------------------------|
G|-4--6--7--9--11--12--14--16—-18~-----18-------------------------|
D|-x--x--x--x--x---x---x---x---x-~-----x--------------------------|
A|-2--4--5--7--9---10--12—14---16~-----16-------------------------|
E|----------------------------------------------------------------|


| /  slide up
| \  slide down
| h  hammer-on
| p  pull-off
| ~  vibrato
| b  bend
| pm  palm mute
===============================================================================

            
            
Suggest correction
Creating personal tab
Creating personal tab
You can edit any tab online and save it as your Personal.

You can edit, replace or remove any tab part or add personal notes – all changes will be seen only by you.

Personal tabs can be accessed anytime from any device, even offline.
Learn more »
comments
print report bad tab
12 comments total. Showing first comments.
0 reply
Lloyd_Griffiths 189 Mar 31, 2007 04:58 AM

Absolutly awesome tab. Perfect-o well done about time some 1 tabbed this 5 *****

-1 reply
euden 10 Apr 01, 2007 12:30 PM

finally! wow somebody actually answered my request for this to be tabbed! it's about time too thanks a million dude!

-1 reply
Aim_To_Disable 81 Apr 08, 2007 09:39 AM

Wow great tab, everything seems bang on, except for the solo backing, are you sure thats right, 'cos it doesnt sound right when i play it. This still deserves another 5 stars though :)

guest
You may want to rate the tab now too:
select rating
Wanna post a correction for this tab? Suggest correction