Oops, an error
Loading. Please wait.

Running Away intro tab

version 1
version 1

Intro

Whole song

Interactive

786 views 1 this week
6 commentsread comments
1 2 3 4 5
x 3
add to favorites
×
Save as Personal and add changes to this tab that will be seen only by you. Learn more ›
×
You can save this tab as Personal to edit and correct it or add notes. All changes will be seen only by you. Learn more »
launch autoscroll
font size
0
reset
how to read this tab
guitar tuner
edit
Autoscroll
slow
fast
+/-
esc
set tempo
stop
Difficulty
This is my first tab, I've only been playing for just over a year, so please be kind =)

E----7-5-4-------7-5-4-------5-4-5-----5-4-5------|
B--5-------5---5-------5---5---------5------------|
G-------------------------------------------------|  x3
D-------------------------------------------------|
A-------------------------------------------------|
E-------------------------------------------------|

E----7-5-4-------7-5-4-------5-4-5-----5-4--------|
B--5-------5---5-------5---5---------5-----5------|
G-------------------------------------------------|  x1
D-------------------------------------------------|
A-------------------------------------------------|
E-------------------------------------------------|

Any help with the rest would be much appreciated!
Suggest correction
Creating personal tab
Creating personal tab
You can edit any tab online and save it as your Personal.

You can edit, replace or remove any tab part or add personal notes – all changes will be seen only by you.

Personal tabs can be accessed anytime from any device, even offline.
Learn more »
Give kudos to tab author, rate the tab!
1 2 3 4 5
comments
print report bad tab
6 comments total. Showing first comments.
0 reply
amanda1000 21 Oct 28, 2007 12:13 AM

i like it!
do tabs out the whole song if possible =D

0 reply
Wooders-07 10 Mar 03, 2008 01:40 PM

E----7-5-4-------7-5-4-------4---4-----4---4------|
B--5-------5---5-------5---5---7-----5---7--------|
G-------------------------------------------------|
D-------------------------------------------------|
A-------------------------------------------------|
E-------------------------------------------------|
sounds better?

0 reply
JoshyD 82 Mar 05, 2008 02:33 PM

yeh nice, can someone tab the whle thing at all? What is being palm muted at the beginning?

guest
Wanna post a correction for this tab? Suggest correction