Oops, an error
Loading. Please wait.

Still Figuring Out bass

version 1
version 1

Whole song

Interactive

2,209 views 1 this week
1 commentread comment
1 2 3 4 5
x 4
add to favorites
×
Save as Personal and add changes to this tab that will be seen only by you. Learn more ›
×
You can save this tab as Personal to edit and correct it or add notes. All changes will be seen only by you. Learn more »
launch autoscroll
font size
0
reset
guitar tuner
edit
Autoscroll
slow
fast
+/-
esc
set tempo
stop
Author
Tabbed By : Aiden4140


Tuning: Standard

Intro

G|----------------------------------------------------------------------|
D|----------------------------------------------------------------------|
A|-10~-5~--------10~-5~------------5~-----------------------------------|
E|--------5~-7~---------5~-5~---3~----5-6-7~--8~----3~-----10~----------|

Verse x 2

G|------------------------------------------------------------------------|
D|------------------------------------------------------------------------|
A|-5555555555555555--0000000000000000-------------------------------------|
E|-------------------------------------0000000000000000--3333333355555555-|

Pre Chorus

G|----------------------------------------------------------------------|
D|----------------------------------------------------------------------|
A|----------------------------------------------------------------------|
E|--0~-----7~-----0~-----3~---3-5~----5---------------------------------|

Chorus

G|----------------------------------------------------------------------|
D|----------------------------------------------------------------------|
A|-----------55555555---------------------------------------------------|
E|--33333333----------55555555-77777777---------------------------------|

G|----------------------------------------------------------------------|
D|----------------------------------------------------------------------|
A|-----------55555555-------5-----5555555-------------------------------|
E|--33333333----------5-xxx---5-5---------------------------------------|

G|----------------------------------------------------------------------|
D|----------------------------------------------------------------------|
A|-----------55555555---------------------------------------------------|
E|--33333333----------5555666677777777-88888888-33333333----------------|

G|----------------------------------------------------------------------|
D|----------------------------------------------------------------------|
A|--55555555555555555555555555555555------------------------------------|
E|----------------------------------------------------------------------|

2nd Verse

G|----------------------------------------------------------------------|
D|----------------------------------------------------------------------|
A|--5~--0~--------------------------------------------------------------|
E|----------0-0-0-00-0-0-0-0--3~-5~-------------------------------------|

G|------------------------------------------------------------------------|
D|------------------------------------------------------------------------|
A|-5555555555555555--0000000000000000-------------------------------------|
E|-------------------------------------0000000000000000--3333333355555555-|

(Pre Chorus)

(Chorus)

(Slow Part Before The Solo) - Nothing Is Played

(Guitar Solo) - Play Chorus

After Guitar Solo Chorus Is Played Again Twice

End
Suggest correction
Creating personal tab
Creating personal tab
You can edit any tab online and save it as your Personal.

You can edit, replace or remove any tab part or add personal notes – all changes will be seen only by you.

Personal tabs can be accessed anytime from any device, even offline.
Learn more »
comments
print report bad tab
1 comment total.
0 reply
TommyGun91 903 Sep 23, 2008 06:19 AM

Isn't there like a funky bass riff in the very last chorus?
Apart from that this tab is perfect =)

guest
You may want to rate the tab now too:
select rating
Wanna post a correction for this tab? Suggest correction