Oops, an error
Loading. Please wait.

The White One Is Evil solo tab

version 1
version 1

Solo

Whole song

Interactive

1,319 views 3 this week
3 commentsread comments
1 2 3 4 5
x 3
add to favorites
×
Save as Personal and add changes to this tab that will be seen only by you. Learn more ›
×
You can save this tab as Personal to edit and correct it or add notes. All changes will be seen only by you. Learn more »
launch autoscroll
font size
0
reset
how to read this tab
guitar tuner
edit
Autoscroll
slow
fast
+/-
esc
set tempo
stop
Author
Difficulty
Email: Aiden4140@hotmail.co.uk

Tuning: E-A-D-G-B-e

e|--------------------------------------------------------------|
B|--------------------------------------14-17-15-14-------------|
G|-12~----------------------------14-16-------------16-14-16~---|
D|-----------------------14-16-18-------------------------------|
A|--------------14-16-17----------------------------------------|
E|-----14-16-17-------------------------------------------------|


e|--------------------------------------------------------------|
B|----22------------21------------------------------------------|
G|-------19----19------19----19--12~----------------------------|
D|----------18------------18------------------------------------|
A|--------------------------------------------------------------|
E|--------------------------------------------------------------|


            
            
Suggest correction
Creating personal tab
Creating personal tab
You can edit any tab online and save it as your Personal.

You can edit, replace or remove any tab part or add personal notes – all changes will be seen only by you.

Personal tabs can be accessed anytime from any device, even offline.
Learn more »
Give kudos to tab author, rate the tab!
1 2 3 4 5
comments
print report bad tab
3 comments total.
0 reply
.:A7X-Chris:. 10 Jan 02, 2008 12:59 AM

.

0 reply
shooshi123 133 Jul 12, 2008 08:09 AM

Sehr gut

0 reply
ParamoreMadXD 71 Apr 13, 2009 06:58 AM

i dont have a 22 fret guitar, how am i meant to play this?

guest
You may want to rate the tab now too:
select rating
Wanna post a correction for this tab? Suggest correction