Oops, an error
Loading. Please wait.

Sad After Sex chords

22 views 1 this week
no commentswrite comment
1 2 3 4 5
3 more votes to show rating
add to favorites
×
Save as Personal and add changes to this tab that will be seen only by you. Learn more ›
×
You can save this tab as Personal to edit and correct it or add notes. All changes will be seen only by you. Learn more »
launch autoscroll
font size
0
reset
transpose
0
reset
display chords
guitar tuner
edit
Autoscroll
slow
fast
+/-
esc
set tempo
stop
Author
Difficulty
About this tab version
Very short song of one minute and ten seconds with a great introduction. Was this info helpful? Yes No
Strumming
There is no strumming pattern for this song yet. and get +5 IQ
Song:           Sad After Sex
Artist:         Elliott Murphy
Album:          12 (1990)
Tabbed by:      Javier de la Fuente

[Intro]
e-----------------------------------------------------------------------------|
B--------0-2-0----------2-----3--------------0-2-0----------2-----3-----------|
G----2-2-------2-------2-2---2-2---------2-2-------2-------2-2---2-2----------|
D-----------------2---------0-------------------------2---------0----0--------|
A--------------------------------0------------------------------------------0-|
E--------------------2-----------------------------------2--------------------|

e-------------------------------2-----------------------------------------|
B--------0-2-0---------3--------3--------3--------------------------------|
G----2-2-------2------4-4-------2--------3--------------------------------|
D-----------------2-------------0----0-0-3--------------------------------|
A--------------------2------2--4---------0--------------------------------|
E-------------------------------------------------------------------------|

e-------------------------------------------------------------------2----------|
B--------0-2-0----------2-----3--------------0-2-0---------3--------3--------3-|
G----2-2-------2-------2-2---2-2---------2-2-------2------4-4-------2--------3-|
D-----------------2---------0-------------------------2-------------0----0-0-3-|
A--------------------------------0-----------------------2------2--4---------0-|
E--------------------2---------------------------------------------------------|

[Verse]
G            Am         Em
My few words so easily spoken
                                 D            G
Can't change a lifetime of your heart being broken
                        Em       D
Don't worry baby, everything is OK
G                D      G
It came to pass not to stay
Em                  Bm          Em               Bm
Half this world is organic, the other half “au naturel”
Em                     Bm                D         
But sometimes I prefer nylon instead of wool ...

            
            
Suggest correction
Creating personal tab
Creating personal tab
You can edit any tab online and save it as your Personal.

You can edit, replace or remove any tab part or add personal notes – all changes will be seen only by you.

Personal tabs can be accessed anytime from any device, even offline.
Learn more »
Give kudos to tab author, rate the tab!
1 2 3 4 5
comments
print report bad tab
guest
You may want to rate the tab now too:
select rating
Wanna post a correction for this tab? Suggest correction