Oops, an error
Loading. Please wait.

A Fond Farewell Tab

version 3
version 3

Whole song

  • This is the first complete tab of this song in the... Show more

Interactive

43 views 3 this week
no commentswrite comment
1 2 3 4 5
3 more votes to show rating
add to favorites
launch autoscroll
font size
0
reset
how to read this tab
guitar tuner
Autoscroll
slow
fast
+/-
esc
set tempo
stop
Help us to improve Ultimate-Guitar.com Take our survey!
×
Author
Difficulty
Capo
intermediate
2nd fret
About this tab version
This is the first complete tab of this song in the tuning and capo position that Elliott plays it in/on. Was this info helpful? Yes No
Elliott Smith
A Fond Farewell
From A Basement On The Hill (2004)

Tuning - EADGBe

Capo 2nd Fret - All Guitars

4/4

[INTRO]

[Acoustic Guitar]

e|-----------------------|-----------------------|----------------------4|-----------------------|\
B|-------2-----------x--2|----2--------------2--2|-0-----------0--0-----5|----------5------------| \
G|-2-----2--2--2--2--x--2|-2--2--2--2--2--2--2--2|-1-----1--1--1--1-----4|-4--4--4--4--4--4--4-\-|  |
D|-4-----4--4--4--4--x--2|-2--2--2--2--2--2--2--2|-2-----2--2--2--2------|-6--6--6--6--6--6--6-\-|  |
A|-4-----4--4--4--4--x--0|-0--0--0--0--0--0--0--0|-2-----2--2--2--2------|-4--4--4-----4--4--4-\-|  |
E|-2-----2--2--2--2-----0|-0--0--0--0--0--0--0--0|-0-----0--0--0--0------|-4--4--4-----4--4--4-\-|  |
                                                                                                    |
[Electric Guitar 1]                                                                                 |
                                                                                                    |
e|-----------------------|-----------------------|-----------------------|-----------------------|  |
B|----------------9---\5-|--------------------5-7|-7b(9)----------------5b(7)--------------------|  |
G|-------11-9--11--------|-----------------------|-----------------------|-----------------------|  |
D|----11-----------------|-----------------------|-----------------------|-----------------------|  |
A|-9---------------------|-----------------------|-----------------------|-----------------------|  |
E|-----------------------|-----------------------|-----------------------|-----------------------|  |
                                                                                                    |
[Electric Guitar 2]                                                                                 |
                                                                                                    |
e|-----------------------|-----------------------|-----------------------|-----------------------|  |
B|-----------------------|-----------------------|----------------------0|-------------------0---|  |
G|-6---------------------|----------6------------|-------9-----9--9-----x|-----------------------|  |
D|-4--------------------7|----------------7------|----------------------6|-------------6---------|  |
A|----------------------0|-----------------------|-7--------7-----------4|-----------------------| /
E|-----------------------|-----------------------|-----------------------|-----------------------|/



[Acoustic Guitar]

e|-----------------------|-----------------------|----------------------4|----4------------------|\
B|-------2-----------x--2|----2--------------2--2|-0-----------0--0-----7|----5------------------| \
G|-2-----2--2--2--2--x--2|-2--2--2--2--2--2--2--2|-1-----1--1--1--1-----4|----4--4--4--4--4--4-\-|  |
D|-4-----4--4--4--4--x--2|-2--2--2--2--2--2--2--2|-2-----2--2--2--2-----6|----6--6--6--6--6--6-\-|  |
A|-4-----4--4--4--4--x--0|-0--0--0--0--0--0--0--0|-2-----2--2--2--2------|----4--4--4--4--4--4-\-|  |
E|-2-----2--2--2--2-----0|-0--0--0--0--0--0--0--0|-0-----0--0--0--0------|----4--4--4--4--4--4-\-|  |
                                                                                                    |
[Electric Guitar 1]                                                                                 |
                                                                                                    |
e|-----------------------|-----------------------|-----------------------|-----------------------|  |
B|----------------9---\5-|--------------------5-7|-7b(9)----------------5b(7)-7b(9)--------------|  |
G|-------11-9--11--------|-----------------------|-----------------------|-----------------------|  |
D|----11-----------------|-----------------------|-----------------------|-----------------------|  |
A|--9--------------------|-----------------------|-----------------------|-----------------------|  |
E|-----------------------|-----------------------|-----------------------|-----------------------|  |
                                                                                                    |
[Electric Guitar 2]                                                                                 |
                                                                                                    |
e|-----------------------|-----------------------|-----------------------|-----------------------|  |
B|-----------------------|-----------------------|----------------------0|-------------------0---|  |
G|-6---------------------|----------6------------|-------9-----9--9-----x|-----------------------|  |
D|-4--------------------7|----------------7------|----------------------6|----------------6------|  |
A|----------------------0|-----------------------|-7--------7-----------4|-------------4---------| /
E|-----------------------|-----------------------|-----------------------|-----------------------|/



[Acoustic Guitar]

e|-----------------------|-----------------------|----------------------4|-----------------------|\
B|-------2-----------x--2|----2--------------2--2|-0-----------0--0-----5|----------5------------| \
G|-2-----2--2--2--2--x--2|-2--2--2--2--2--2--2--2|-1-----1--1--1--1-----4|-4--4--4--4--4--4--4-\-|  |
D|-4-----4--4--4--4--x--2|-2--2--2--2--2--2--2--2|-2-----2--2--2--2------|-6--6--6--6--6--6--6-\-|  |
A|-4-----4--4--4--4--x--0|-0--0--0--0--0--0--0--0|-2-----2--2--2--2------|-4--4--4-----4--4--4-\-|  |
E|-2-----2--2--2--2-----0|-0--0--0--0--0--0--0--0|-0-----0--0--0--0------|-4--4--4-----4--4--4-\-|  |
                                                                                                    |
[Electric Guitar 1]                                                                                 |
                                                                                                    |
e|-----------------------|-----------------------|-------7-----7--------7b(9)--------------------|  |
B|----------------9----\5|--------------------5-7|-7b(9)-----------------|-----------------------|  |
G|-------11-9--11--------|-----------------------|-----------------------|-----------------------|  |
D|----11-----------------|-----------------------|-----------------------|-----------------------|  |
A|-9---------------------|-----------------------|-----------------------|-----------------------|  |
E|-----------------------|-----------------------|-----------------------|-----------------------|  |
                                                                                                    |
[Electric Guitar 2]                                                                                 |
                                                                                                    |
e|-----------------------|-----------------------|-----------------------|-----------------------|  |
B|-----------------------|-----------------------|----------------------0|-----------------------|  |
G|-6---------------------|----------6------------|-------9-----9--9-----x|-----------------------|  |
D|-4--------------------7|----------------7------|----------------------6|-----------------------|  |
A|----------------------0|-----------------------|-7--------7-----------4|-----------------------| /
E|-----------------------|-----------------------|-----------------------|-----------------------|/



[Acoustic Guitar]

e|-------2--0--2--4-----0|----0-----0-----0------|\
B|----2-----------------2|----2-----2-----2-----0| \
G|----------------------2|----2-----2-----2-----0|  |
D|-4--------------------2|----2-----2-----2-----0|  |
A|-x--------------------0|----0-----0-----0------|  |
E|-2--------------------0|----0-----0-----0------|  |
    T                                               |
                                                    |
[Electric Guitar 1]                                 |
                                                    |
e|---------------------9-|----7------------------|  |
B|----------------9------|--------pb7(9)r7-----5-|  |
G|-------11-9--11--------|-----------------------|  |
D|----11-----------------|-----------------------|  |
A|-9---------------------|-----------------------|  |
E|-----------------------|-----------------------|  |
                                                    |
[Electric Guitar 2]                                 |
                                                    |
e|-----------------------|-----------------------|  |
B|-----------------------|-----------------------|  |
G|-6---------------------|--------9--------------|  |
D|-4---------------------|-----------------------|  |
A|-----------------------|------7----------------| /
E|-----------------------|-----------------------|/



[VERSE]

[Acoustic Guitar]

e|-0-----0-----0--0-----0|----0-----0-----0--0---|-2-----2-----2--2-----4|-4--4--4-----4--4--4---|\
B|-0-----0-----0--0--x--2|----2--x--0-----0--0--x|-2-----2-----2--2--x--5|-5--5--5-----5--5--5--x| \
G|-1-----1-----1--1--x--2|----2--x--1-----1--1--x|-2-----2-----2--2--x--6|-6--6--6-----6--6--6--x|  |
D|-2-----2-----2--2--x--2|----2--x--2-----2--2--x|-4-----4-----4--4--x--6|-6--6--6-----6--6--6--x|  |
A|-2-----2-----2--2--x--0|----0--x--2-----2--2--x|-4-----4-----4--4--x--4|-4--4--4-----4--4--4--x|  |
E|-0-----0-----0--0------|----------0-----0--0---|-2-----2-----2--2-----4|-4--4--4-----4--4--4---|  |
                                                                                                    |
[Electric Guitar 1]                                                                                 |
                                                                                                    |
e|-----------------------|-----------------------|-----------------------|-----------------------|  |
B|-------------9---------|-----------------------|-----------------------|----------------5------|  |
G|-------9--------9------|-------------------1---|-------------2---------|-------6-----6-----6---|  |
D|----------9------------|----------------2-----2|-------4--------4------|----------6-----------6|  |
A|-----------------------|-------------2---------|----4-----4----------/4|-----------------------| /
E|-----------------------|----------0------------|-2---------------------|-----------------------|/

     The Litebrite's now black and white      You  took  apart a picture  that wasn't right



[Acoustic Guitar]

e|-4-----4-----4--4-----5|----5--5-----5--5--5---|-2-----2-----2--2-----0|----0--0-----0--0--0---|\
B|-4-----4-----4--4--x--5|----5--5-----5--5--5---|-2-----2-----2--2--x--2|----2--2-----2--2--2---| \
G|-5-----5-----5--5--x--6|----6--6-----6--6--6-\-|-3-----3-----3--3--x--2|----2--2-----2--2--2---|  |
D|-4-----4-----4--4--x--7|----7--7-----7--7--7-\-|-4-----4-----4--4--x--2|----2--2-----2--2--2---|  |
A|-6-----6-----6--6--x--7|----7--7-----7--7--7-\-|-4-----4-----4--4--x--0|----0--0-----0--0--0---|  |
E|-4-----4-----4--4-----5|----5--5-----5--5--5-\-|-2-----2-----2--2------|-----------------------|  |
                                                                                                    |
[Electric Guitar 1]                                                                                 |
                                                                                                    |
e|-----------------------|-----------------------|-----------------------|-----------------------|  |
B|-----------------------|----------2-----2--0---|-----------------------|-----------------------|  |
G|-------------5---------|-------------2---------|-------------3---------|-----------------------|  |
D|-------4--------4------|-----------------------|-------4--------4------|-----------------------|  |
A|----6-----6------------|-----------------------|----4-----4------------|-----------------------| /
E|-4---------------------|-----------------------|-2---------------------|-----------------------|/

         Pitch burning on an empty sheet              The only maker that you wanna meet



[Acoustic Guitar]

e|-4-----4-----4--4-----5|----5-----0-----0--0---|-2-----2-----2--2-----4|-4--4--4-----4--4--4---|\
B|-5-----5-----5--5--x--5|----5--x--0-----0--0--x|-2-----2-----2--2--x--5|-5--5--5-----5--5--5--x| \
G|-6-----6-----6--6--x--6|----6--x--1-----1--1--x|-2-----2-----2--2--x--6|-6--6--6-----6--6--6--x|  |
D|-6-----6-----6--4--x--7|----7--x--2-----2--2--x|-4-----4-----4--4--x--6|-6--6--6-----6--6--6--x|  |
A|-4-----4-----4--4--x--7|----7--x--2-----2--2--x|-4-----4-----4--4--x--4|-4--4--4-----4--4--4--x|  |
E|-4-----4-----4--4-----5|----5-----0-----0--0---|-2-----2-----2--2-----4|-4--4--4-----4--4--4---|  |
                                                                                                    |
[Electric Guitar 1]                                                                                 |
                                                                                                    |
e|-----------------------|-----------------------|-----------------------|-----------------------|  |
B|-------------5---------|-----------------------|-----------------------|----------5-----5------|  |
G|-------6--------6------|-------------------1---|-------------2---------|----6------------------|  |
D|----6-----6------------|----------------2------|-------4--------4------|-6-----6--------------6|  |
A|-4---------------------|-----------------------|----4-----4------------|-------------------4---| /
E|-----------------------|----------0------------|-2---------------------|-----------------------|/

         A dying man in a living room                    Whose shadow paces the floor



[Acoustic Guitar]

e|-4-----4-----4--4-----5|----5--5-----5--5------|-2-----2-----2--2-----0|----0--0-----0--0--0---|\
B|-4-----4-----4--4--x--5|----5--5-----5--5------|-2-----2-----2--2--x--2|----2--2-----2--2--2--0| \
G|-5-----5-----5--5--x--6|----6--6-----6--6--5--x|-3-----3-----3--3--x--2|----2--2-----2--2--2--0|  |
D|-4-----4-----4--4--x--7|----7--7-----7--7--6--x|-4-----4-----4--4--x--2|----2--2-----2--2--2--0|  |
A|-6-----6-----6--6--x--7|----7--7-----7--7--6--x|-4-----4-----4--4--x--0|----0--0-----0--0--0---|  |
E|-4-----4-----4--4-----5|----5--5-----5--5--4--x|-2-----2-----2--2------|-----------------------|  |
                                                                                                    |
[Electric Guitar 1]                                                                                 |
                                                                                                    |
e|-----------------------|-----------------------|-----------------------|-----------------------|  |
B|-----------------------|----------2-----2--0---|-2-----2-----2--------0|----2--2-----2--2--2---|  |
G|-------------5---------|-------------2---------|-----------------------|-----------------------|  |
D|-------4--------4------|-----------------------|-----------------------|-----------------------|  |
A|----6-----6------------|-----------------------|-----------------------|-----------------------|  |
E|-4---------------------|-----------------------|-----------------------|-----------------------|  |
                                                                                                    |
[Electric Guitar 2]                                                                                 |
                                                                                                    |
e|-----------------------|-----------------------|-----------------------|-----------------------|  |
B|-----------------------|-----------------------|-----------------------|-----------------------|  |
G|-----------------------|-----------------------|-----------------------|-----------------------|  |
D|-----------------------|-----------------------|-4-----4-----4--------2|----2--2-----2--2--2---|  |
A|-----------------------|-----------------------|-----------------------|-----------------------| /
E|-----------------------|-----------------------|-----------------------|-----------------------|/

         Who'll take you out in the open door            This is not my life          It's just a



[CHORUS]

[Acoustic Guitar]

e|-0-----0-----0--0--0--0|----0--0-----0--0--0---|-2-----2-----2--2-----0|----0--0-----0--0--0---|\
B|-0-----0-----0--0--0--0|----0--0-----0--0--0--0|-2-----2-----2--2--x--2|----2--2-----2--2--2--0| \
G|-1-----1-----1--1--1--1|----1--1-----1--1--1--0|-2-----2-----2--2--x--2|----2--2-----2--2--2--0|  |
D|-2-----2-----2--2--2--2|----2--2-----2--2--2--0|-4-----4-----4--4--x--2|----2--2-----2--2--2--0|  |
A|-2-----2-----2--2--2--2|----2--2-----2--2--2---|-4-----4-----4--4--x--0|----0--0-----0--0--0---|  |
E|-0-----0-----0--0--0--0|----0--0-----0--0--0---|-2-----2-----2--2------|-----------------------|  |
                                                                                                    |
[Electric Guitar 1]                                                                                 |
                                                                                                    |
e|-----------------------|-----------------------|-----------------------|-----------------------|  |
B|-0-----0-----0--------0|-------0-----0-----0---|-2-----2-----2--------0|----2--2-----2--2--2---|  |
G|-----------------------|-----------------------|-----------------------|-----------------------|  |
D|-----------------------|-----------------------|-----------------------|-----------------------|  |
A|-----------------------|-----------------------|-----------------------|-----------------------|  |
E|-----------------------|-----------------------|-----------------------|-----------------------|  |
                                                                                                    |
[Electric Guitar 2]                                                                                 |
                                                                                                    |
e|-----------------------|-----------------------|-----------------------|-----------------------|  |
B|-----------------------|-----------------------|-----------------------|-----------------------|  |
G|-----------------------|-----------------------|-----------------------|-----------------------|  |
D|-2-----2-----2--------2|-------2-----2-----2---|-4-----4-----4--------2|----2--2-----2--2--2---|  |
A|-----------------------|-----------------------|-----------------------|-----------------------| /
E|-----------------------|-----------------------|-----------------------|-----------------------|/

   fond fare well to a  friend                   It's not  what I'm  like             It's just a



[Acoustic Guitar]

e|-0-----0-----0--0-----4|-4--4--4-----4--4--4---|-2-----2-----2--2-----0|----0--0-----0--0--0---|\
B|-0-----0-----0--0--x--5|-5--5--5-----5--5--5--0|-2-----2-----2--2--x--2|----2--2-----2--2--2--0| \
G|-1-----1-----1--1--x--6|-6--6--6-----6--6--6--0|-2-----2-----2--2--x--2|----2--2-----2--2--2--0|  |
D|-2-----2-----2--2--x--6|-6--6--6-----6--6--6--0|-4-----4-----4--4--x--2|----2--2-----2--2--2--0|  |
A|-2-----2-----2--2--x--4|-4--4--4-----4--4--4---|-4-----4-----4--4--x--0|----0--0-----0--0--0---|  |
E|-0-----0-----0--0-----4|-4--4--4-----4--4--4---|-2-----2-----2--2------|-----------------------|  |
                                                                                                    |
[Electric Guitar 1]                                                                                 |
                                                                                                    |
e|-----------------------|-----------------------|-----------------------|-----------------------|  |
B|-0-----0-----0---------|-----------------------|-2-----2-----2--------0|----2--2-----2--2--2---|  |
G|----------------------1|-------1-----1-----1---|-----------------------|-----------------------|  |
D|-----------------------|-----------------------|-----------------------|-----------------------|  |
A|-----------------------|-----------------------|-----------------------|-----------------------|  |
E|-----------------------|-----------------------|-----------------------|-----------------------|  |
                                                                                                    |
[Electric Guitar 2]                                                                                 |
                                                                                                    |
e|-----------------------|-----------------------|-----------------------|-----------------------|  |
B|-----------------------|-----------------------|-----------------------|-----------------------|  |
G|-----------------------|-----------------------|-----------------------|-----------------------|  |
D|-2-----2-----2---------|-----------------------|-4-----4-----4--------2|----2--2-----2--2--2---|  |
A|----------------------4|-------4-----4-----4---|-----------------------|-----------------------| /
E|-----------------------|-----------------------|-----------------------|-----------------------|/

   fond fare well to a  friend                       Who couldn't get things right    It's just a



[Acoustic Guitar]

e|-0-----0-----0--0-----4|-4--4--4-----4--4--4---|-2-----2-----2--2-----0|----0-----0-----0------|\
B|-0-----0-----0--0--x--5|-5--5--5-----5--5--5--0|-2-----2-----2--2--x--2|----2-----2-----2-----0| \
G|-1-----1-----1--1--x--6|-6--6--6-----6--6--6--0|-2-----2-----2--2--x--2|----2-----2-----2-----0|  |
D|-2-----2-----2--2--x--6|-6--6--6-----6--6--6--0|-4-----4-----4--4--x--2|----2-----2-----2-----0|  |
A|-2-----2-----2--2--x--4|-4--4--4-----4--4--4---|-4-----4-----4--4--x--0|----0-----0-----0------|  |
E|-0-----0-----0--0-----4|-4--4--4-----4--4--4---|-2-----2-----2--2------|-----------------------|  |
                                                                                                    |
[Electric Guitar 1]                                                                                 |
                                                                                                    |
e|-----------------------|-----------------------|----------------------9|----7------------------|  |
B|-0-----0-----0---------|-----------------------|----------------9------|--------pb7(9)r7------5|  |
G|----------------------1|-------1-----1-----1---|-------11-9--11--------|-----------------------|  |
D|-----------------------|-----------------------|----11-----------------|-----------------------|  |
A|-----------------------|-----------------------|-----------------------|-----------------------|  |
E|-----------------------|-----------------------|-----------------------|-----------------------|  |
                                                                                                    |
[Electric Guitar 2]                                                                                 |
                                                                                                    |
e|-----------------------|-----------------------|----------------------9|----7------------------|  |
B|-----------------------|-----------------------|----------------9------|--------pb7(9)r7------5|  |
G|-----------------------|-----------------------|-------11-9--11--------|-----------------------|  |
D|-2-----2-----2---------|-----------------------|----11-----------------|-----------------------|  |
A|----------------------4|-------4-----4-----4---|-----------------------|-----------------------| /
E|-----------------------|-----------------------|-----------------------|-----------------------|/  

   fond fare well to a  friend      



[VERSE II]

[Acoustic Guitar]

e|-0-----0-----0--0-----0|----0-----0-----0--0---|-2-----2-----2--2-----4|-4--4--4-----4--4--4---|\
B|-0-----0-----0--0--x--2|----2--x--0-----0--0--x|-2-----2-----2--2--x--5|-5--5--5-----5--5--5--x| \
G|-1-----1-----1--1--x--2|----2--x--1-----1--1--x|-2-----2-----2--2--x--6|-6--6--6-----6--6--6--x|  |
D|-2-----2-----2--2--x--2|----2--x--2-----2--2--x|-4-----4-----4--4--x--6|-6--6--6-----6--6--6--x|  |
A|-2-----2-----2--2--x--0|----0--x--2-----2--2--x|-4-----4-----4--4--x--4|-4--4--4-----4--4--4--x|  |
E|-0-----0-----0--0------|----------0-----0--0---|-2-----2-----2--2-----4|-4--4--4-----4--4--4---|  |
                                                                                                    |
[Electric Guitar 1]                                                                                 |
                                                                                                    |
e|-----------------------|-----------------------|-----------------------|-----------------------|  |
B|-------------9---------|-----------------------|-----------------------|----------------5------|  |
G|-------9--------9------|-------------------1---|-------------2---------|-------6-----6-----6---|  |
D|----------9------------|----------------2-----2|-------4--------4------|----------6-----------6|  |
A|-----------------------|-------------2---------|----4-----4----------/4|-----------------------| /
E|-----------------------|----------0------------|-2---------------------|-----------------------|/

     He said really I just want to dance good and  evil match perfect, it's a great romance



[Acoustic Guitar]

e|-4-----4-----4--4-----5|----5--5-----5--5--5---|-2-----2-----2--2-----0|----0--0-----0--0--0---|\
B|-4-----4-----4--4--x--5|----5--5-----5--5--5---|-2-----2-----2--2--x--2|----2--2-----2--2--2---| \
G|-5-----5-----5--5--x--6|----6--6-----6--6--6-\-|-2-----2-----2--2--x--2|----2--2-----2--2--2---|  |
D|-4-----4-----4--4--x--7|----7--7-----7--7--7-\-|-4-----4-----4--4--x--2|----2--2-----2--2--2---|  |
A|-6-----6-----6--6--x--7|----7--7-----7--7--7-\-|-4-----4-----4--4--x--0|----0--0-----0--0--0---|  |
E|-4-----4-----4--4-----5|----5--5-----5--5--5-\-|-2-----2-----2--2------|-----------------------|  |
                                                                                                    |
[Electric Guitar 1]                                                                                 |
                                                                                                    |
e|-----------------------|-----------------------|-----------------------|-----------------------|  |
B|-----------------------|----2------------------|-----------------------|-----------------------|  |
G|-------------5---------|----2------------------|-------------3---------|-----------------------|  |
D|-------4--------4------|-----------------------|-------4--------4------|-----------------------|  |
A|----6-----6-----------0|-----------------------|----4-----4------------|-----------------------| /
E|-4---------------------|-------------5--5--4--3|-2---------------------|-----------------------|/

     And I can deal with some psychic pain     If  it'll slow down my higher brain



[Acoustic Guitar]

e|-4-----4-----4--4-----5|----5-----0-----0--0---|-2-----2-----2--2-----4|-4--4--4-----4--4--4---|\
B|-5-----5-----5--5--x--5|----5--x--0-----0--0--x|-2-----2-----2--2--x--5|-5--5--5-----5--5--5--x| \
G|-6-----6-----6--6--x--6|----6--x--1-----1--1--x|-2-----2-----2--2--x--6|-6--6--6-----6--6--6--x|  |
D|-6-----6-----6--4--x--7|----7--x--2-----2--2--x|-4-----4-----4--4--x--6|-6--6--6-----6--6--6--x|  |
A|-4-----4-----4--4--x--7|----7--x--2-----2--2--x|-4-----4-----4--4--x--4|-4--4--4-----4--4--4--x|  |
E|-4-----4-----4--4-----5|----5-----0-----0--0---|-2-----2-----2--2-----4|-4--4--4-----4--4--4---|  |
                                                                                                    |
[Electric Guitar 1]                                                                                 |
                                                                                                    |
e|-----------------------|-----------------------|-----------------------|-----------------------|  |
B|-------------5---------|-----------------------|-----------------------|----------5-----5------|  |
G|-------6--------6------|-------------------1---|-------------2---------|----6------------------|  |
D|----6-----6------------|----------------2------|-------4--------4------|-6-----6--------------6|  |
A|-4---------------------|-2---------------------|----4-----4------------|-------------------4---| /
E|----------------------0|----------0------------|-2---------------------|-----------------------|/

         Veins full of disappearing ink                  Vomiting in your kitchen sink



[Acoustic Guitar]

e|-4-----4-----4--4-----5|----5--5-----5--5------|-2-----2-----2--2-----0|----0--0-----0--0--0---|\
B|-4-----4-----4--4--x--5|----5--5-----5--5------|-2-----2-----2--2--x--2|----2--2-----2--2--2--0| \
G|-5-----5-----5--5--x--6|----6--6-----6--6--5--x|-2-----2-----2--2--x--2|----2--2-----2--2--2--0|  |
D|-4-----4-----4--4--x--7|----7--7-----7--7--6--x|-4-----4-----4--4--x--2|----2--2-----2--2--2--0|  |
A|-6-----6-----6--6--x--7|----7--7-----7--7--6--x|-4-----4-----4--4--x--0|----0--0-----0--0--0---|  |
E|-4-----4-----4--4-----5|----5--5-----5--5--4--x|-2-----2-----2--2------|-----------------------|  |
                                                                                                    |
[Electric Guitar 1]                                                                                 |
                                                                                                    |
e|-----------------------|-----------------------|-----------------------|-----------------------|  |
B|-----------------------|-------2---------------|-2-----2-----2--------0|----2--2-----2--2--2---|  |
G|-------------5---------|----2--------2--2--1---|-----------------------|-----------------------|  |
D|-------4--------4------|-2---------------------|-----------------------|-----------------------|  |
A|----6-----6-----------0|-----------------------|-----------------------|-----------------------|  |
E|-4---------------------|-----------------------|-----------------------|-----------------------|  |
                                                                                                    |
[Electric Guitar 2]                                                                                 |
                                                                                                    |
e|-----------------------|-----------------------|-----------------------|-----------------------|  |
B|-----------------------|-----------------------|-----------------------|-----------------------|  |
G|-----------------------|-----------------------|-----------------------|-----------------------|  |
D|-----------------------|-----------------------|-4-----4-----4--------2|----2--2-----2--2--2---|  |
A|-----------------------|-----------------------|-----------------------|-----------------------| /
E|-----------------------|-----------------------|-----------------------|-----------------------|/

         Disconnecting from the missing link             This is not my life          It's just a



[CHORUS]

[Acoustic Guitar]

e|-0-----0-----0--0--0--0|----0--0-----0--0--0---|-2-----2-----2--2-----0|----0--0-----0--0--0---|\
B|-0-----0-----0--0--0--0|----0--0-----0--0--0--0|-2-----2-----2--2--x--2|----2--2-----2--2--2--0| \
G|-1-----1-----1--1--1--1|----1--1-----1--1--1--0|-2-----2-----2--2--x--2|----2--2-----2--2--2--0|  |
D|-2-----2-----2--2--2--2|----2--2-----2--2--2--0|-4-----4-----4--4--x--2|----2--2-----2--2--2--0|  |
A|-2-----2-----2--2--2--2|----2--2-----2--2--2---|-4-----4-----4--4--x--0|----0--0-----0--0--0---|  |
E|-0-----0-----0--0--0--0|----0--0-----0--0--0---|-2-----2-----2--2------|-----------------------|  |
                                                                                                    |
[Electric Guitar 1]                                                                                 |
                                                                                                    |
e|-----------------------|-----------------------|-----------------------|-----------------------|  |
B|-0-----0-----0--------0|-------0-----0-----0---|-2-----2-----2--------0|----2--2-----2--2--2---|  |
G|-----------------------|-----------------------|-----------------------|-----------------------|  |
D|-----------------------|-----------------------|-----------------------|-----------------------|  |
A|-----------------------|-----------------------|-----------------------|-----------------------|  |
E|-----------------------|-----------------------|-----------------------|-----------------------|  |
                                                                                                    |
[Electric Guitar 2]                                                                                 |
                                                                                                    |
e|-----------------------|-----------------------|-----------------------|-----------------------|  |
B|-----------------------|-----------------------|-----------------------|-----------------------|  |
G|-----------------------|-----------------------|-----------------------|-----------------------|  |
D|-2-----2-----2--------2|-------2-----2-----2---|-4-----4-----4--------2|----2--2-----2--2--2---|  |
A|-----------------------|-----------------------|-----------------------|-----------------------| /
E|-----------------------|-----------------------|-----------------------|-----------------------|/  

   fond fare well to a  friend                   It's not  what I'm  like             It's just a



[Acoustic Guitar]

e|-0-----0-----0--0-----4|-4--4--4-----4--4--4---|-2-----2-----2--2-----0|----0--0-----0--0--0---|\
B|-0-----0-----0--0--x--5|-5--5--5-----5--5--5--0|-2-----2-----2--2--x--2|----2--2-----2--2--2--0| \
G|-1-----1-----1--1--x--6|-6--6--6-----6--6--6--0|-2-----2-----2--2--x--2|----2--2-----2--2--2--0|  |
D|-2-----2-----2--2--x--6|-6--6--6-----6--6--6--0|-4-----4-----4--4--x--2|----2--2-----2--2--2--0|  |
A|-2-----2-----2--2--x--4|-4--4--4-----4--4--4---|-4-----4-----4--4--x--0|----0--0-----0--0--0---|  |
E|-0-----0-----0--0-----4|-4--4--4-----4--4--4---|-2-----2-----2--2------|-----------------------|  |
                                                                                                    |
[Electric Guitar 1]                                                                                 |
                                                                                                    |
e|-----------------------|-----------------------|-----------------------|-----------------------|  |
B|-0-----0-----0---------|-----------------------|-2-----2-----2--------0|----2--2-----2--2--2---|  |
G|----------------------1|-------1-----1-----1---|-----------------------|-----------------------|  |
D|-----------------------|-----------------------|-----------------------|-----------------------|  |
A|-----------------------|-----------------------|-----------------------|-----------------------|  |
E|-----------------------|-----------------------|-----------------------|-----------------------|  |
                                                                                                    |
[Electric Guitar 2]                                                                                 |
                                                                                                    |
e|-----------------------|-----------------------|-----------------------|-----------------------|  |
B|-----------------------|-----------------------|-----------------------|-----------------------|  |
G|-----------------------|-----------------------|-----------------------|-----------------------|  |
D|-2-----2-----2---------|-----------------------|-4-----4-----4--------2|----2--2-----2--2--2---|  |
A|----------------------4|-------4-----4-----4---|-----------------------|-----------------------| /
E|-----------------------|-----------------------|-----------------------|-----------------------|/

   fond fare well to a  friend                       Who couldn't get things right    It's just a



[Acoustic Guitar]

e|-0-----0-----0--0-----4|-4--4--4-----4--4--4---|-2-----2-----2--2-----0|----0-----0-----0------|\
B|-0-----0-----0--0--x--5|-5--5--5-----5--5--5--0|-2-----2-----2--2--x--2|----2-----2-----2-----0| \
G|-1-----1-----1--1--x--6|-6--6--6-----6--6--6--0|-2-----2-----2--2--x--2|----2-----2-----2-----0|  |
D|-2-----2-----2--2--x--6|-6--6--6-----6--6--6--0|-4-----4-----4--4--x--2|----2-----2-----2-----0|  |
A|-2-----2-----2--2--x--4|-4--4--4-----4--4--4---|-4-----4-----4--4--x--0|----0-----0-----0------|  |
E|-0-----0-----0--0-----4|-4--4--4-----4--4--4---|-2-----2-----2--2------|-----------------------|  |
                                                                                                    |
[Electric Guitar 1]                                                                                 |
                                                                                                    |
e|-----------------------|-----------------------|----------------------9|----7------------------|  |
B|-0-----0-----0---------|-----------------------|----------------9------|--------pb7(9)r7------5|  |
G|----------------------1|-------1-----1-----1---|-------11-9--11--------|-----------------------|  |
D|-----------------------|-----------------------|----11-----------------|-----------------------|  |
A|-----------------------|-----------------------|-----------------------|-----------------------|  |
E|-----------------------|-----------------------|-----------------------|-----------------------|  |
                                                                                                    |
[Electric Guitar 2]                                                                                 |
                                                                                                    |
e|-----------------------|-----------------------|----------------------9|----7------------------|  |
B|-----------------------|-----------------------|----------------9------|--------pb7(9)r7------5|  |
G|-----------------------|-----------------------|-------11-9--11--------|-----------------------|  |
D|-2-----2-----2---------|-----------------------|----11-----------------|-----------------------|  |
A|----------------------4|-------4-----4-----4---|-----------------------|-----------------------| /
E|-----------------------|-----------------------|-----------------------|-----------------------|/

   fond fare well to a  friend   



[VERSE III]

[Acoustic Guitar]

e|-0--------------------0|----0-----0-----0--0---|-2-----2-----2--2-----4|-4--4--4-----4--4-----4|
B|-0-----------------0--2|----2--x--0-----0--0--x|-2-----2-----2--2--x--5|-5--5--5-----5--5--x--4| 
G|-4-----------------4--2|----2--x--1-----1--1--x|-2-----2-----2--2--x--6|-6--6--6-----6--6--x--5|  
D|-2-----------------2--2|----2--x--2-----2--2--x|-4-----4-----4--4--x--6|-6--6--6-----6--6--x--4|  
A|-4-----------------4--0|----0--x--2-----2--2--x|-4-----4-----4--4--x--4|-4--4--4-----4--4--x--6|  
E|-----------------------|----------0-----0--0---|-2-----2-----2--2-----4|-4--4--4-----4--4-----4|  

        I      see      your leaving me              And taking up with the enemy



[Acoustic Guitar]

e|-4-----4-----4--4-----5|-5--5--5-----5--5------|-2-----2-----2--2-----0|----0--0-----0--0--0---|
B|-4-----4-----4--4--x--5|-5--5--5-----5--5------|-2-----2-----2--2--x--2|----2--2-----2--2--2--0|
G|-5-----5-----5--5--x--6|-6--6--6-----6--6--5--4|-2-----2-----2--2--x--2|----2--2-----2--2--2--0|
D|-4-----4-----4--4--x--7|-7--7--7-----7--7--6--5|-4-----4-----4--4--x--2|----2--2-----2--2--2--0|
A|-6-----6-----6--6--x--7|-7--7--7-----7--7--6--5|-4-----4-----4--4--x--0|----0--0-----0--0--0---|
E|-4-----4-----4--4-----5|-5--5--5-----5--5--4--3|-2-----2-----2--2------|-----------------------|

     The cold comfort of the in-between               A  little less than a human being



[Acoustic Guitar]

e|-4-----4-----4--4-----5|----5-----0-----0--0---|-2-----2-----2--2-----4|-4--4--4-----4--4--4---|\
B|-5-----5-----5--5--x--5|----5--x--0-----0--0--x|-2-----2-----2--2--x--5|-5--5--5-----5--5--5--x| \
G|-6-----6-----6--6--x--6|----6--x--1-----1--1--x|-2-----2-----2--2--x--6|-6--6--6-----6--6--6--x|  |
D|-6-----6-----6--4--x--7|----7--x--2-----2--2--x|-4-----4-----4--4--x--6|-6--6--6-----6--6--6--x|  |
A|-4-----4-----4--4--x--7|----7--x--2-----2--2--x|-4-----4-----4--4--x--4|-4--4--4-----4--4--4--x|  |
E|-4-----4-----4--4-----5|----5-----0-----0--0---|-2-----2-----2--2-----4|-4--4--4-----4--4--4---|  |
                                                                                                    |
[Electric Guitar 1]                                                                                 |
                                                                                                    |
e|-----------------------|-----------------------|-----------------------|-----------------------|  |
B|-------------5---------|-----------------------|-----------------------|-------------5---------|  |
G|-------6--------6------|-------------------1---|-------------2---------|-------6---------------|  |
D|----6-----6------------|----------------2------|-------4--------4------|----6-----6--------6\--|  |
A|-4---------------------|-----------------------|----4-----4------------|----------------4------| /
E|-----------------------|----------0------------|-2---------------------|-----------------------|/

      A  little less than a happy high                A  little less than a suicide 



[Acoustic Guitar]

e|-4-----4-----4--4-----5|----5--5-----5--5------|-2-----2-----2--2-----0|----0--0-----0--0--0---|\
B|-4-----4-----4--4--x--5|----5--5-----5--5------|-2-----2-----2--2--x--2|----2--2-----2--2--2--0| \
G|-5-----5-----5--5--x--6|----6--6-----6--6--5--4|-2-----2-----2--2--x--2|----2--2-----2--2--2--0|  |
D|-4-----4-----4--4--x--7|----7--7-----7--7--6--5|-4-----4-----4--4--x--2|----2--2-----2--2--2--0|  |
A|-6-----6-----6--6--x--7|----7--7-----7--7--6--5|-4-----4-----4--4--x--0|----0--0-----0--0--0---|  |
E|-4-----4-----4--4-----5|----5--5-----5--5--4--3|-2-----2-----2--2------|-----------------------|  |
                                                                                                    |
[Electric Guitar 1]                                                                                 |
                                                                                                    |
e|-----------------------|-----------------------|-----------------------|-----------------------|  |
B|-----------------------|----------2-----2--0---|-2-----2-----2--------0|----2--2-----2--2--2---|  |
G|-------------5---------|-------------2---------|-----------------------|-----------------------|  |
D|-------4--------4------|-----------------------|-----------------------|-----------------------|  |
A|----6-----6------------|-----------------------|-----------------------|-----------------------|  |
E|-4---------------------|-----------------------|-----------------------|-----------------------|  |
                                                                                                    |
[Electric Guitar 2]                                                                                 |
                                                                                                    |
e|-----------------------|-----------------------|-----------------------|-----------------------|  |
B|-----------------------|-----------------------|-----------------------|-----------------------|  |
G|-----------------------|-----------------------|-----------------------|-----------------------|  |
D|-----------------------|-----------------------|-4-----4-----4--------2|----2--2-----2--2--2---|  |
A|-----------------------|-----------------------|-----------------------|-----------------------| /
E|-----------------------|-----------------------|-----------------------|-----------------------|/

     The only things that you really tried               This is not my life          It's just a



[CHORUS]

[Acoustic Guitar]

e|-0-----0-----0--0--0--0|----0--0-----0--0--0---|-2-----2-----2--2-----0|----0--0-----0--0--0---|\
B|-0-----0-----0--0--0--0|----0--0-----0--0--0--0|-2-----2-----2--2--x--2|----2--2-----2--2--2--0| \
G|-1-----1-----1--1--1--1|----1--1-----1--1--1--0|-2-----2-----2--2--x--2|----2--2-----2--2--2--0|  |
D|-2-----2-----2--2--2--2|----2--2-----2--2--2--0|-4-----4-----4--4--x--2|----2--2-----2--2--2--0|  |
A|-2-----2-----2--2--2--2|----2--2-----2--2--2---|-4-----4-----4--4--x--0|----0--0-----0--0--0---|  |
E|-0-----0-----0--0--0--0|----0--0-----0--0--0---|-2-----2-----2--2------|-----------------------|  |
                                                                                                    |
[Electric Guitar 1]                                                                                 |
                                                                                                    |
e|-----------------------|-----------------------|-----------------------|-----------------------|  |
B|-0-----0-----0--------0|-------0-----0-----0---|-2-----2-----2--------0|----2--2-----2--2--2---|  |
G|-----------------------|-----------------------|-----------------------|-----------------------|  |
D|-----------------------|-----------------------|-----------------------|-----------------------|  |
A|-----------------------|-----------------------|-----------------------|-----------------------|  |
E|-----------------------|-----------------------|-----------------------|-----------------------|  |
                                                                                                    |
[Electric Guitar 2]                                                                                 |
                                                                                                    |
e|-----------------------|-----------------------|-----------------------|-----------------------|  |
B|-----------------------|-----------------------|-----------------------|-----------------------|  |
G|-----------------------|-----------------------|-----------------------|-----------------------|  |
D|-2-----2-----2--------2|-------2-----2-----2---|-4-----4-----4--------2|----2--2-----2--2--2---|  |
A|-----------------------|-----------------------|-----------------------|-----------------------| /
E|-----------------------|-----------------------|-----------------------|-----------------------|/

   fond fare well to a  friend                   It's not  what I'm  like             It's just a



[Acoustic Guitar]

e|-0-----0-----0--0-----4|-4--4--4-----4--4--4---|-2-----2-----2--2-----0|----0--0-----0--0--0---|\
B|-0-----0-----0--0--x--5|-5--5--5-----5--5--5--0|-2-----2-----2--2--x--2|----2--2-----2--2--2--0| \
G|-1-----1-----1--1--x--6|-6--6--6-----6--6--6--0|-2-----2-----2--2--x--2|----2--2-----2--2--2--0|  |
D|-2-----2-----2--2--x--6|-6--6--6-----6--6--6--0|-4-----4-----4--4--x--2|----2--2-----2--2--2--0|  |
A|-2-----2-----2--2--x--4|-4--4--4-----4--4--4---|-4-----4-----4--4--x--0|----0--0-----0--0--0---|  |
E|-0-----0-----0--0-----4|-4--4--4-----4--4--4---|-2-----2-----2--2------|-----------------------|  |
                                                                                                    |
[Electric Guitar 1]                                                                                 |
                                                                                                    |
e|-----------------------|-----------------------|-----------------------|-----------------------|  |
B|-0-----0-----0---------|-----------------------|-2-----2-----2--------0|----2--2-----2--2--2---|  |
G|----------------------1|-------1-----1-----1---|-----------------------|-----------------------|  |
D|-----------------------|-----------------------|-----------------------|-----------------------|  |
A|-----------------------|-----------------------|-----------------------|-----------------------|  | 
E|-----------------------|-----------------------|-----------------------|-----------------------|  |
                                                                                                    |
[Electric Guitar 2]                                                                                 |
                                                                                                    |
e|-----------------------|-----------------------|-----------------------|-----------------------|  |
B|-----------------------|-----------------------|-----------------------|-----------------------|  |
G|-----------------------|-----------------------|-----------------------|-----------------------|  |
D|-2-----2-----2---------|-----------------------|-4-----4-----4--------2|----2--2-----2--2--2---|  |
A|----------------------4|-------4-----4-----4---|-----------------------|-----------------------| /
E|-----------------------|-----------------------|-----------------------|-----------------------|/

   fond fare well to a  friend                       Who couldn't get things right             A



[Acoustic Guitar]

e|-0-----0-----0--0-----4|-4--4--4-----4--4--4---|-2-----2-----2--2-----0|----0--0-----0--0--0---|\
B|-0-----0-----0--0--x--5|-5--5--5-----5--5--5--0|-2-----2-----2--2--x--2|----2--2-----2--2--2--0| \
G|-1-----1-----1--1--x--6|-6--6--6-----6--6--6--0|-2-----2-----2--2--x--2|----2--2-----2--2--2--0|  |
D|-2-----2-----2--2--x--6|-6--6--6-----6--6--6--0|-4-----4-----4--4--x--2|----2--2-----2--2--2--0|  |
A|-2-----2-----2--2--x--4|-4--4--4-----4--4--4---|-4-----4-----4--4--x--0|----0--0-----0--0--0---|  |
E|-0-----0-----0--0-----4|-4--4--4-----4--4--4---|-2-----2-----2--2------|-----------------------|  |
                                                                                                    |
[Electric Guitar 1]                                                                                 |
                                                                                                    |
e|-----------------------|-----------------------|-----------------------|-----------------------|  |
B|-0-----0-----0---------|-----------------------|-2-----2-----2--------0|----2--2-----2--2--2---|  |
G|----------------------1|-------1-----1-----1---|-----------------------|-----------------------|  |
D|-----------------------|-----------------------|-----------------------|-----------------------|  |
A|-----------------------|-----------------------|-----------------------|-----------------------|  |
E|-----------------------|-----------------------|-----------------------|-----------------------|  |
                                                                                                    |
[Electric Guitar 2]                                                                                 |
                                                                                                    |
e|-----------------------|-----------------------|-----------------------|-----------------------|  |
B|-----------------------|-----------------------|-----------------------|-----------------------|  |
G|-----------------------|-----------------------|-----------------------|-----------------------|  |
D|-2-----2-----2---------|-----------------------|-4-----4-----4--------2|----2--2-----2--2--2---|  |
A|----------------------4|-------4-----4-----4---|-----------------------|-----------------------| /
E|-----------------------|-----------------------|-----------------------|-----------------------|/

   fond fare well to a  friend                           This is not my life          It's just a



[OUTRO]

[Acoustic Guitar]

e|-0-----0-----0--0-----4|-4--4--4-----4--4--4---|-2-----2-----2--2-----0|----0-----0-----0------|\
B|-0-----0-----0--0--x--5|-5--5--5-----5--5--5--0|-2-----2-----2--2--x--2|----2-----1-----1-----0| \
G|-1-----1-----1--1--x--6|-6--6--6-----6--6--6--0|-2-----2-----2--2--x--2|----2-----2-----2-----0|  |
D|-2-----2-----2--2--x--6|-6--6--6-----6--6--6--0|-4-----4-----4--4--x--2|----2-----2-----2-----0|  |
A|-2-----2-----2--2--x--4|-4--4--4-----4--4--4---|-4-----4-----4--4--x--0|----0-----0-----0------|  |
E|-0-----0-----0--0-----4|-4--4--4-----4--4--4---|-2-----2-----2--2------|-----------------------|  |
                                                                                                    |
[Electric Guitar 1]                                                                                 |
                                                                                                    |
e|-----------------------|-----------------------|-----------------------|-----------------------|  |
B|-0-----0-----0---------|-----------------------|-------7-----7--9-----5|--------------------5/7|  |
G|----------------------1|-------1-----1-----1---|----------9------------|----6-----5------------|  |
D|-----------------------|-----------------------|-----------------------|-------7--7------------|  |
A|-----------------------|-----------------------|-----------------------|-----------------------|  |
E|-----------------------|-----------------------|-----------------------|-----------------------|  |
                                                                                                    |
[Electric Guitar 2]                                                                                 |
                                                                                                    |
e|-----------------------|-----------------------|-----------------------|-----------------------|  |
B|-----------------------|-----------------------|-------7-----7--9-----5|--------------------5/7|  |
G|-----------------------|-----------------------|----------9------------|----6-----5------------|  |
D|-2-----2-----2---------|-----------------------|-----------------------|-------7--7------------|  |
A|----------------------4|-------4-----4-----4---|-----------------------|-----------------------| /
E|-----------------------|-----------------------|-----------------------|-----------------------|/

   fond fare well to a  friend

 

[Acoustic Guitar]

e|-0-----0-----0--0-----4|-4--4--4-----4--4--4---|-2-----2-----2--2-----0|----0-----0-----0------|\
B|-0-----0-----0--0--x--5|-5--5--5-----5--5--5--0|-2-----2-----2--2--x--2|----2-----1-----1-----0| \
G|-1-----1-----1--1--x--6|-6--6--6-----6--6--6--0|-2-----2-----2--2--x--2|----2-----2-----2-----0|  |
D|-2-----2-----2--2--x--6|-6--6--6-----6--6--6--0|-4-----4-----4--4--x--2|----2-----2-----2-----0|  |
A|-2-----2-----2--2--x--4|-4--4--4-----4--4--4---|-4-----4-----4--4--x--0|----0-----0-----0------|  |
E|-0-----0-----0--0-----4|-4--4--4-----4--4--4---|-2-----2-----2--2------|-----------------------|  |
                                                                                                    |
[Electric Guitar 1]                                                                                 |
                                                                                                    |
e|-----------------------|-----------------------|-----------------------|-----------------------|  |
B|-7b(9)-5-----5--5-----5b(7)------pb5(7)r5------|-------7-----7--9-----5|--------------------5-7|  |
G|----------4------------|-----------------------|----------9------------|----6-----5------------|  |
D|-----------------------|-------------------6--5|-4---------------------|-------7--7------------|  |
A|-----------------------|-----------------------|-----------------------|-----------------------|  | 
E|-----------------------|-----------------------|-----------------------|-----------------------|  |
                                                                                                    |
[Electric Guitar 2]                                                                                 |
                                                                                                    |
e|-----------------------|-----------------------|-----------------------|-----------------------|  |
B|-7b(9)-5-----5--5-----5b(7)------pb5(7)r5------|-------7-----7--9-----5|--------------------5-7|  |
G|----------4------------|-----------------------|----------9------------|----6-----5------------|  |
D|-----------------------|-------------------6--5|-4---------------------|-------7--7------------|  |
A|-----------------------|-----------------------|-----------------------|-----------------------| /
E|-----------------------|-----------------------|-----------------------|-----------------------|/



[Acoustic Guitar]

e|-0-----0-----0--0-----4|-4--4--4-----4--4--4---|-2-----2-----2--2-----0|----0-----0-----0------|\
B|-0-----0-----0--0--x--5|-5--5--5-----5--5--5--0|-2-----2-----2--2--x--2|----2-----1-----1-----0| \
G|-1-----1-----1--1--x--6|-6--6--6-----6--6--6--0|-2-----2-----2--2--x--2|----2-----2-----2-----0|  |
D|-2-----2-----2--2--x--6|-6--6--6-----6--6--6--0|-4-----4-----4--4--x--2|----2-----2-----2-----0|  |
A|-2-----2-----2--2--x--4|-4--4--4-----4--4--4---|-4-----4-----4--4--x--0|----0-----0-----0------|  |
E|-0-----0-----0--0-----4|-4--4--4-----4--4--4---|-2-----2-----2--2------|-----------------------|  |
                                                                                                    |
[Electric Guitar 1]                                                                                 |
                                                                                                    |
e|-----------------------|-----------------------|-----------------------|-----------------------|  |
B|-7b(9)-5-----5--5-----5b(7)-7b(9)----7b(9)-----|-------7-----7--9-----5|--------------------5-7|  |
G|----------4------------|-----------------------|----------9------------|----6-----5------------|  |
D|-----------------------|-------------------6--5|-4---------------------|-------7--7------------|  |
A|-----------------------|-----------------------|-----------------------|-----------------------|  |
E|-----------------------|-----------------------|-----------------------|-----------------------|  |
                                                                                                    |
[Electric Guitar 2]                                                                                 |
                                                                                                    |
e|-----------------------|-----------------------|-----------------------|-----------------------|  |
B|-7b(9)-5-----5--5-----5b(7)-7b(9)----7b(9)-----|-------7-----7--9-----5|--------------------5-7|  |
G|----------4------------|-----------------------|----------9------------|----6-----5------------|  |
D|-----------------------|-------------------6--5|-4---------------------|-------7--7------------|  |
A|-----------------------|-----------------------|-----------------------|-----------------------| /
E|-----------------------|-----------------------|-----------------------|-----------------------|/



[Acoustic Guitar]

e|-0-----0-----0--0-----4|-4--4--4-----4--4--4---|-2-----2-----2--2-----0|----0-----0-----0--0--0|\
B|-0-----0-----0--0--x--5|-5--5--5-----5--5--5--0|-2-----2-----2--2--x--2|----2-----1-----1--1--1| \
G|-1-----1-----1--1--x--6|-6--6--6-----6--6--6--0|-2-----2-----2--2--x--2|----2-----2-----2--2--2|  |
D|-2-----2-----2--2--x--6|-6--6--6-----6--6--6--0|-4-----4-----4--4--x--2|----2-----2-----2--2--2|  |
A|-2-----2-----2--2--x--4|-4--4--4-----4--4--4---|-4-----4-----4--4--x--0|----0-----0-----0--0--0|  |
E|-0-----0-----0--0-----4|-4--4--4-----4--4--4---|-2-----2-----2--2------|-----------------------|  |
                                                                                                    |
[Electric Guitar 1]                                                                                 |
                                                                                                    |
e|-------7--7--7--7-----7b(9)--------------------|----------------------9|----7------------------|  |
B|-7b(9)-----------------|-----------------------|-------7-----7--9------|----------7b(9)-7-----5|  |
G|-----------------------|-----------------------|----6-----9------------|-----------------------|  |
D|-----------------------|-----------------------|-----------------------|-----------------------|  |
A|-----------------------|-----------------------|-----------------------|-----------------------|  |
E|-----------------------|-----------------------|-----------------------|-----------------------|  |
                                                                                                    |
[Electric Guitar 2]                                                                                 |
                                                                                                    |
e|-------7--7--7--7-----7b(9)--------------------|----------------------9|----7------------------|  |
B|-7b(9)-----------------|-----------------------|-------7-----7--9------|----------7b(9)-7-----5|  |
G|-----------------------|-----------------------|----6-----9------------|-----------------------|  |
D|-----------------------|-----------------------|-----------------------|-----------------------|  |
A|-----------------------|-----------------------|-----------------------|-----------------------| /
E|-----------------------|-----------------------|-----------------------|-----------------------|/



[Acoustic Guitar]

e|-0---------------------|----------0--------0---|--------0--------------|-----------------------|\
B|-1---------------------|-1--1--1--1--1-----1---|-------0---------------|-----------------------| \
G|-2----(2)(2)(2)(2)-2--2|-2--2--2--2--2--2--2---|------1----------------|-----------------------|  |
D|-2-(2)(2)(2)(2)(2)-2--2|-2--2--2--2--2--2--2---|-----2-----------------|-----------------------|  |
A|-0-(0)(0)(0)(0)(0)-0--0|-0--0--0--0--0--0--0---|----2------------------|-----------------------|  |
E|-----------------------|-----------------------|---0-------------------|-----------------------|  |
                                                                                                    |
[Electric Guitar 1]                                                                                 |
                                                                                                    |
e|-----------------------|-----------------------|---------------0-------|-----------------------|  |
B|-----------------------|-----------------------|--------------0--------|-----------------------|  |
G|-----------------------|-----------------------|-------------1---------|-----------------------|  |
D|-----------------------|-----------------------|------------2----------|-----------------------|  |
A|-----------------------|-----------------------|-----------2-----------|-----------------------|  |
E|-----------------------|-----------------------|----------0------------|-----------------------|  |
                                                                                                    |
[Electric Guitar 2]                                                                                 |
                                                                                                    |
e|-----------------------|-----------------------|--------0--------------|------0----------------|  |
B|-----------------------|-----------------------|-------0---------------|-----0-----------------|  |
G|-----------------------|-----------------------|------1----------------|----1------------------|  |
D|-----------------------|-----------------------|-----2-----------------|---2-------------------|  |
A|-----------------------|-----------------------|----2------------------|--2--------------------| /
E|-----------------------|-----------------------|---0-------------------|-0---------------------|/


************************************

| x   Dead note
| (n) Ghost note
| h   Hammer-on
| p   Pull-off
| r   Release
| b   Bend
| pb  Pre-bend
| /   Slide up
| \   Slide down
| ~   Vibrato

************************************
Suggest correction
Give kudos to tab author, rate the tab!
1 2 3 4 5
comments
print report bad tab
guest
You may want to rate the tab now too:
select rating
Wanna post a correction for this tab? Suggest correction