Oops, an error
Loading. Please wait.

A Question Mark Bass Tab

1,568 views 3 this week
no commentswrite comment
1 2 3 4 5
3 more votes to show rating
add to favorites
launch autoscroll
font size
0
reset
guitar tuner
Autoscroll
slow
fast
+/-
esc
set tempo
stop
Help us to improve Ultimate-Guitar.com Take our survey!
×
Author
G|---------------------------------------------------------------------------|
D|---------------------------------------------------------------------------|
A|--7-5------------------5-4-0-3-/-7-5---------------------------------------|
E|------7-7-5-4-0-x2-------------------7-7-5-4-0-x2---8-7-5------------------|
((((x2 part again, then the 8 7 5 run down again, do the x2 part once and just
stop on low E before the chorus))))

Chorus:

G|--------------------------------0--------------------------------------------|
D|----------2-x2--then-------0h2----2------------------------------------------|
A|----3-2-3------------3-2-3----------3-2-3------------------------------------|
E|------------------------------------------0----------------------------------|

Bridge:

G|---------------------------------------------------------------------------|
D|--------------0-4-4-5---------------2-0---3-2-0----------------------------|
A|----------2-0------------------2-0------3-------3--------------------------|
E|----0-2-3----------------0-2-3---------------------------------------------|
Suggest correction
Give kudos to tab author, rate the tab!
1 2 3 4 5
comments
print report bad tab
guest
You may want to rate the tab now too:
select rating
Wanna post a correction for this tab? Suggest correction