Oops, an error
Loading. Please wait.
We have Chord Pro version of Angeles.
It's the closest thing you can get to the original song and it has interactive parts. Check out the tab »
×
138,582 views 39 this week
9 commentsread comments
1 2 3 4 5
x 13
add to favorites
launch autoscroll
font size
0
reset
how to read this tab
guitar tuner
Autoscroll
slow
fast
+/-
esc
set tempo
stop
Author
Difficulty
Capo
intermediate
7th fret
Angeles
by Elliott Smith

Many thanks to tabbed by nick, nleger@math.utexas.edu for posting this on 
- i'm just putting it here so more people can see it.

tune down a full step
capo on 7th


[Intro]

          Bm/E                      Bm/E                       A

e|-------2---------------|--2--------2-----------0--|-------0---------------|
B|---------------3-------|-----3-----------3--------|---------------2-------|
G|-----------------------|--------------------------|-----------------------|
D|-------4----------4----|--------4-----------4-----|-------2----------2----|
A|-----------------------|--------------------------|--0---------0----------|
E|--0---------0----------|--0-----------0-----------|-----------------------|

           A                        Em9                      D11

e|--0--------0-------------|-----------------------|-------------------------|
B|-----2-----------2-------|-------3---------------|--3--------3-------------|
G|-------------------------|---------------0-------|-----0-----------0-------|
D|--------2-----------4----|-------4----------4----|--------4-----------0----|
A|--0-----------0----------|--2---------2----------|--0-----------0----------|
E|-------------------------|-----------------------|-------------------------|


           G6                      G6/F#                     Bm/E

e|-----------------------|--------------------------|-------0h---2----------|
B|-------3---------------|--3--------3-----------3--|---------------3-------|
G|---------------0-------|-----0-----------0--------|-----------------------|
D|-------0----------0----|--------0-----------0-----|-------4----------4----|
A|-----------------------|--------------------------|-----------------------|
E|--3---------3----------|--3-----------2-----------|--0---------0----------|

          Bm/E                       A                        A

e|--2--------2-----------0--|-------0---------------|--0--------0-------------|
B|-----3-----------3--------|---------------2-------|-----2-----------2-------|
G|--------------------------|-----------------------|-------------------------|
D|--------4-----------4-----|-------2----------2----|--------2-----------4----|
A|--------------------------|--0---------0----------|--0-----------0----------|
E|--0-----------0-----------|-----------------------|-------------------------|

          Em9                       D11                      G6

e|-----------------------|-------------------------|-----------------------|
B|-------3---------------|--3--------3-------------|-------3---------------|
G|---------------0-------|-----0-----------0-------|---------------0-------|
D|-------4----------4----|--------4-----------0----|-------0----------0----|
A|--2---------2----------|--0-----------0----------|-----------------------|
E|-----------------------|-------------------------|--3---------3----------|

           G6                       F#                       A

e|-----------------0-------|-------2---------------|--0--------0-------------|
B|--3--------3-------------|---------------2-------|-----2-----------2-------|
G|-----0-------------------|-----------------------|-------------------------|
D|--------0-----------0----|-------4----------4----|--------2-----------0----|
A|-------------------------|-----------------------|--0-----------0----------|
E|--3-----------3----------|--2---------2----------|-------------------------|

            G                       D                    E         E

e|-------3-------------0h-|--2----2-------------0--|-------0---------0----|
B|---------------3--------|---------------3--------|-------0---------0----|
G|------------------------|------------------------|-------1---------1----|
D|-------0----------0-----|-------0----------0-----|-------2---------2----|
A|------------------------|--0---------0-----------|-------2---------2----|
E|--3---------3-----------|------------------------|--0----0----0----0----|

(from here on, strum the chords in a way that sounds like finger-picking just like 
does it ;)

       E        E/F#          G         G            G         A

e|-------0---------0----|-------3---------3----|-------3---------0----|
B|-------0---------0----|-------0---------0----|-------0---------2----|
G|-------1---------1----|-------0---------0----|-------0---------2----|
D|-------2---------2----|-------0---------0----|-------0---------2----|
A|-------2---------x----|-------2---------2----|-------2----0----0----|
E|--0----0----2----2----|--3----3----3----3----|--3----3--------------|


       G         G                                  Bm        Bm

e|-------3---------3----|----------------------|-------2---------2----|
B|-------0---------0----|-------0--------------|-------3---------3----|
G|-------0---------0----|-------0--------------|-------4---------4----|
D|-------0---------0----|--4---------2----0----|-------4---------4----|
A|-------2---------2----|----------------------|--2---------2---------|
E|--3----3----3----3----|----------------------|----------------------|


       A       G6/A           G         G            G         A

e|-------0--------------|-------3---------3----|-------3---------0----|
B|-------2---------0----|-------0---------0----|-------0---------2----|
G|-------2---------0----|-------0---------0----|-------0---------2----|
D|-------2---------0----|-------0---------0----|-------0---------2----|
A|--0---------0---------|-------2---------2----|-------2----0----0----|
E|----------------------|--3----3----3----3----|--3----3--------------|


       G         G            G        G/F#         Em        Em

e|-------3---------3----|-------3---------3----|-------0---------0----|
B|-------0---------0----|-------0---------0----|-------0---------0----|
G|-------0---------0----|-------0---------0----|-------0---------0----|
D|-------0---------0----|-------0---------0----|-------2---------2----|
A|-------2---------2----|-------2---------2----|-------2---------2----|
E|--3----3----3----3----|--3----3----2----2----|--0----0----0----0----|


[Verse]

      Em        Em            A7       A7           A7        A7

e|-------0---------0----|-------0---------0----|-------0---------0----|
B|-------0---------0----|-------2---------2----|-------2---------2----|
G|-------0---------0----|-------0---------0----|-------0---------0----|
D|-------2---------2----|-------2---------2----|-------2---------2----|
A|-------2---------2----|--0----0----0----0----|--0----0----0----0----|
E|--0----0----0----0----|----------------------|----------------------|


1. someone's always coming around here
2. picking up the ticket shows there's
3. i could make you satisfied in

      Em9       Em9          D11      G6/A           G6        G6

e|-------0---------0----|-------0---------0----|-------0---------0----|
B|-------3---------3----|-------3---------0----|-------3---------3----|
G|-------0---------0----|-------0---------0----|-------0---------0----|
D|-------4---------4----|-------4---------0----|-------0---------0----|
A|--2----2----2----2----|--0----0----0----0----|-------2---------2----|
E|----------------------|----------------------|--3----3----3----3----|


1. trailing some new kill
2. money to be made
3. everything you do

       G6        G6          Em9       Em9

e|-------0---------0----|-------0---------0----|
B|-------3---------3----|-------3---------3----|
G|-------0---------0----|-------0---------0----|
D|-------0---------0----|-------4---------4----|
A|-------2---------2----|-------2----2----2----|
E|--3----3----2----2----|--0-------------------|

      Em9       Em9          A7        A7           A7        A7

e|-------0---------0----|-------0---------0----|-------0---------0----|
B|-------3---------3----|-------2---------2----|-------2---------2----|
G|-------0---------0----|-------0---------0----|-------0---------0----|
D|-------4---------4----|-------2---------2----|-------2---------2----|
A|--2----2----2----2----|--0----0----0----0----|--0----0----0----0----|
E|----------------------|----------------------|----------------------|


1. says i've seen your picture on a
2. go on and lose the gamble, that's the
3. all your 'secret wishes' could right

      Em9       Em9          D11      G6/A          G6        G6

e|-------0---------0----|-------0---------0----|-------0---------0----|
B|-------3---------3----|-------3---------0----|-------3---------3----|
G|-------0---------0----|-------0---------0----|-------0---------0----|
D|-------4---------4----|-------4---------0----|-------0---------0----|
A|--2----2----2----2----|--0----0----0----0----|-------2---------2----|
E|----------------------|----------------------|--3----3----3----3----|


1. hundred dollar bill
2. history of the trade
3. now be coming true

       G6        G6           G6        G6

e|-------0---------0----|-------0---------0----|
B|-------3---------3----|-------3---------3----|
G|-------0---------0----|-------0---------0----|
D|-------0---------0----|-------0---------0----|
A|-------2---------2----|-------2---------2----|
E|--3----3----3----3----|--3----3----3----3----|

      F#        F#            A         A            G         G

e|-------2---------2----|-------0---------0----|-------3---------3----|
B|-------2---------2----|-------2---------2----|-------0---------0----|
G|-------3---------3----|-------2---------2----|-------0---------0----|
D|-------4---------4----|-------2---------2----|-------0---------0----|
A|-------4---------4----|--0----0----0----0----|-------2---------2----|
E|--2----2----2----2----|----------------------|--3----3----3----3----|


1. what's a game of chance
2. did you add up all
3. and be forever


       D         D            E         E            E        E/F#

e|-------2---------2----|-------0---------0----|-------0---------0----|
B|-------3---------3----|-------0---------0----|-------0---------0----|
G|-------2---------2----|-------1---------1----|-------1---------1----|
D|--0----0----0----0----|-------2---------2----|-------2---------2----|
A|----------------------|-------2---------2----|-------2---------x----|
E|----------------------|--0----0----0----0----|--0----0----2----2----|


1. to you, to him is one
2. the cards left to play
3. with my poison arms

       G         G            G         A            G         G

e|-------3---------3----|-------3---------0----|-------3---------3----|
B|-------0---------0----|-------0---------2----|-------0---------0----|
G|-------0---------0----|-------0---------2----|-------0---------0----|
D|-------0---------0----|-------0---------2----|-------0---------0----|
A|-------2---------2----|-------2----0----0----|-------2---------2----|
E|--3----3----3----3----|--3----3--------------|--3----3----3----3----|


1. of real skill
2. to zero
3. around you


                             Bm        Bm            A       G6/A

e|----------------------|-------2---------2----|-------0---------0----|
B|-------0--------------|-------3---------3----|-------2---------0----|
G|-------0--------------|-------4---------4----|-------2---------0----|
D|--4---------2----0----|-------4---------4----|-------2---------0----|
A|----------------------|--2---------2---------|--0---------0---------|
E|----------------------|----------------------|----------------------|


1. so glad to meet you angeles
2. and sign up with evil angeles
3. no one's gonna fool around with us

       G         G            G         A            G         G

e|-------3---------3----|-------3---------0----|-------3---------3----|
B|-------0---------0----|-------0---------2----|-------0---------0----|
G|-------0---------0----|-------0---------2----|-------0---------0----|
D|-------0---------0----|-------0---------2----|-------0---------0----|
A|-------2---------2----|-------2----0----0----|-------2---------2----|
E|--3----3----3----3----|--3----3--------------|--3----3----3----3----|


[Bridge]

       G         G           F#        F#              C#7add11

e|-------3---------3----|-------2---------2----|-------2---------2----|
B|-------0---------0----|-------2---------2----|-------2---------2----|
G|-------0---------0----|-------3---------3----|-------3---------3----|
D|-------0---------0----|-------4---------4----|-------4---------4----|
A|-------2---------2----|-------4---------4----|-------2---------2----|
E|--3----3----3----3----|--2----2----2----2----|--4----4----4----4----|


 don't start me


       A         A           C#         C#          F#        F#

e|-------0---------0----|-------4---------4----|-------2---------2----|
B|-------2---------2----|-------6---------6----|-------2---------2----|
G|-------2---------2----|-------6---------6----|-------3---------3----|
D|-------2---------2----|-------6---------6----|-------4---------4----|
A|--0----0----0----0----|--4----4----4----4----|-------4---------4----|
E|----------------------|----------------------|--2----2----2----2----|


 trying now


       A         A            G         G            D         D

e|-------0---------0----|-------3---------3----|-------2---------2----|
B|-------2---------2----|-------0---------0----|-------3---------3----|
G|-------2---------2----|-------0---------0----|-------2---------2----|
D|-------2---------2----|-------0---------0----|--0----0----0----0----|
A|--0----0----0----0----|-------2---------2----|----------------------|
E|----------------------|--3----3----3----3----|----------------------|

       E         E            E        E/F#          G         G

e|-------0---------0----|-------0---------0----|-------3---------3----|
B|-------0---------0----|-------0---------0----|-------0---------0----|
G|-------1---------1----|-------1---------1----|-------0---------0----|
D|-------2---------2----|-------2---------2----|-------0---------0----|
A|-------2---------2----|-------2---------x----|-------2---------2----|
E|--0----0----0----0----|--0----0----2----2----|--3----3----3----3----|

       G         A            G         G

e|-------3---------0----|-------3---------3----|----------------------|
B|-------0---------2----|-------0---------0----|-------0--------------|
G|-------0---------2----|-------0---------0----|-------0--------------|
D|-------0---------2----|-------0---------0----|--4---------2----0----|
A|-------2----0----0----|-------2---------2----|----------------------|
E|--3----3--------------|--3----3----3----3----|----------------------|

      Bm        Bm            A       G6/A           G         G

e|-------2---------2----|-------0---------0----|-------3---------3----|
B|-------3---------3----|-------2---------0----|-------0---------0----|
G|-------4---------4----|-------2---------0----|-------0---------0----|
D|-------4---------4----|-------2---------0----|-------0---------0----|
A|--2---------2---------|--0---------0---------|-------2---------2----|
E|----------------------|----------------------|--3----3----3----3----|


[Outro]

                             Bm        Bm            A       G6/A

e|----------------------|-------2---------2----|-------0---------0----|
B|-------0--------------|-------3---------3----|-------2---------0----|
G|-------0--------------|-------4---------4----|-------2---------0----|
D|--4---------2----0----|-------4---------4----|-------2---------0----|
A|----------------------|--2---------2---------|--0---------0---------|
E|----------------------|----------------------|----------------------|


 no one's gonna fool around with us


       G         G                                  Bm        Bm

e|-------3---------3----|----------------------|-------2---------2----|
B|-------0---------0----|-------0--------------|-------3---------3----|
G|-------0---------0----|-------0--------------|-------4---------4----|
D|-------0---------0----|--4---------2----0----|-------4---------4----|
A|-------2---------2----|----------------------|--2---------2---------|
E|--3----3----3----3----|----------------------|----------------------|


 so glad to meet you


       A       G6/A           G         G            G         A

e|-------0---------0----|-------3---------3----|-------3---------0----|
B|-------2---------0----|-------0---------0----|-------0---------2----|
G|-------2---------0----|-------0---------0----|-------0---------2----|
D|-------2---------0----|-------0---------0----|-------0---------2----|
A|--0---------0---------|-------2---------2----|-------2----0----0----|
E|----------------------|--3----3----3----3----|--3----3--------------|


 angeles


       G         G            G         A            G         G

e|-------3---------3----|-------3---------0----|-------3---------3----|
B|-------0---------0----|-------0---------2----|-------0---------0----|
G|-------0---------0----|-------0---------2----|-------0---------0----|
D|-------0---------0----|-------0---------2----|-------0---------0----|
A|-------2---------2----|-------2----0----0----|-------2---------2----|
E|--3----3----3----3----|--3----3--------------|--3----3----3----3----|

       G         A       G

e|-------3---------0----|--3----------------|
B|-------0---------2----|--0----------------|
G|-------0---------2----|--0----------------|
D|-------0---------2----|--0----------------|
A|-------2----0----0----|--2----------------|
E|--3----3--------------|--3----------------|



************************************

| x  Dead note
| h  Hammer-on

************************************
Suggest correction
comments
print report bad tab
9 comments total. Showing first comments.
-2 reply
saltthewound 41 Nov 11, 2006 01:55 PM

not even close

+6 reply
joepas 10 Mar 22, 2007 12:21 AM

and maybe you can put the capo on the fifth freth....

+1 reply
gmikey222 173 May 12, 2007 07:19 AM

this is a very accurate tab.
the only thing is, the reason elliott played it on the seventh fret is because he was tuned a whole step down, so in standard it would be on the fifth fret.
but other than that its all good!

guest
You may want to rate the tab now too:
select rating
Wanna post a correction for this tab? Suggest correction