Oops, an error
Loading. Please wait.
We have Chord Pro version of Angeles.
It's the closest thing you can get to the original song and it has interactive parts. Check out the tab »
×
2,242 views 3 this week
no commentswrite comment
1 2 3 4 5
1 last vote to show rating
add to favorites
launch autoscroll
font size
0
reset
how to read this tab
guitar tuner
Autoscroll
slow
fast
+/-
esc
set tempo
stop
Author
Difficulty
intermediate
-----------------------------------------------------------------------------------------
                                     Angeles - Elliott Smith
-----------------------------------------------------------------------------------------
Tabbed by: Joe Clark

Tuning: Standard (capo on fifth fret)

Comments: I'm quite sure this is an accurate tab, but let me know in a comment if anything is
          wrong. Note that the strumming pattern is down, up, down, up, ect. and where ever
          I wrote out the entire chord, I meant for that pattern to be used. 

Introduction:

  Em9                                     A
e|---0h2----------2--------2-----------0-|----0-----------0--------0-------------|       |
B|----------3--------3-----------3-------|----------2--------2-----------2-----3-|       |
G|-------------4--------4-----------4----|-------------2--------2-----------0----|       |
D|----5----------------------------------|----2----------------------------------|       |
A|---------------------------------------|-0-----0--------0-----------0----------|       |
E|-0-----0--------0-----------0----------|---------------------------------------|       |
  E9sus4                                  G *use notes in parentheses on 2nd time through|
e|---------------------------------------|------------------------------------------(0)| |
B|----3-----------3--------3-----------0-|----3-----------3-----------3--------------3-| |
G|----------0--------2-----------2-------|----------0-----------0--------------0-------| |
D|----4--------4--------4-----------4----|----0--------0-----------0--------------0----| |
A|-2-----2--------0-----------2----------|---------------------------------------------| |
E|---------------------------------------|-3-----3-----------3-----------2(3)----------| |x2*

   F#                 A                  G                 D
e|----2-----------0-|----0-----------0-|----3-----------0h2--2-----------0-|  
B|----------2-------|----------2-------|----------3------|---------3-------|
G|-------------3----|-------------2----|-------------0---|------------2----|
D|----4-------------|----2-------------|----0------------|---0-------------|
A|------------------|-0-----0----------|-----------------|0-----0----------|
E|-2-----2----------|------------------|-3-----3---------|-----------------|
  E (strum down and up)        G                    A        G
e|----0-0-0-0-----0-0-----0-0-|----3-3-3-3-----3-3-|----0-0-|-----3-3-3-3--------------|
B|----0-0-0-0-----0-0-----0-0-|----3-3-3-3-----3-3-|----2-2-|-----3-3-3-3--------------|
G|----1-1-1-1-----1-1-----1-1-|----0-0-0-0-----0-0-|----2-2-|-----0-0-0-0--------------|
D|----2-2-2-2-----2-2-----2-2-|----0-0-0-0-----0-0-|----2-2-|-----0-0-0-0--2/4--4\2----|
A|----2-2-2-2-----2-2-----x-x-|----2-2-2-2-----2-2-|-0--0-0-|-----2-2-2-2------------0-|
E|-0--0-0-0-0--0--0-0--2--2-2-|-3--3-3-3-3--3--3-3-|--------|--3--3-3-3-3--------------|
  Bm           A            G                    A        G
e|----2-2-2-2-|----0-0-0-0-|----3-3-3-3-----3-3-|----0-0-|----3-3-3-3-----3-3-----3-3--|
B|----3-3-3-3-|----2-2-2-2-|----3-3-3-3-----3-3-|----2-2-|----3-3-3-3-----3-3-----3-3--|
G|----4-4-4-4-|----2-2-2-2-|----0-0-0-0-----0-0-|----2-2-|----0-0-0-0-----0-0-----0-0--|
D|----4-4-4-4-|----2-2-2-2-|----0-0-0-0-----0-0-|----2-2-|----0-0-0-0-----0-0-----0-0--|
A|-2--2-2-2-2-|-0--0-0-0-0-|----2-2-2-2-----2-2-|-0--0-0-|----2-2-2-2-----2-2-----x-x--|
E|------------|------------|-3--3-3-3-3--3--3-3-|--------|-3--3-3-3-3--3--3-3--2--2-2--|

Verse: 

  Em9                      A7                       E9sus4                     |
e|----2-2-2-2-----2-2-2-2-|----0-0-0-0-----0-0-0-0-|----0-0-0-0-----0-0-0-0-|  |
B|----3-3-3-3-----3-3-3-3-|----2-2-2-2-----2-2-2-2-|----3-3-3-3-----3-3-3-3-|  |
G|----0-0-0-0-----0-0-0-0-|----0-0-0-0-----0-0-0-0-|----0-0-0-0-----2-2-2-2-|  |
D|----2-2-2-2-----2-2-2-2-|----2-2-2-2-----2-2-2-2-|----4-4-4-4-----4-4-4-4-|  |
A|----2-2-2-2-----2-2-2-2-|-0--0-0-0-0--0--0-0-0-0-|-2--2-2-2-2--0--0-0-0-0-|  |
E|-0--0-0-0-0--0--0-0-0-0-|------------------------|------------------------|  |
                                                                               |
  G *use 3 instead of 2 on E 2nd time around                                   |
e|----3-3-3-3-----3-3-----3-3|                                                 |
B|----3-3-3-3-----3-3-----3-3|                                                 |
G|----0-0-0-0-----0-0-----0-0|                                                 |
D|----0-0-0-0-----0-0-----0-0|                                                 |
A|----2-2-2-2-----2-2-----x-x|                                                 |
E|-3--3-3-3-3--3--3-3--2--2-2|                                                 |(x2)

  F#           A           G             D
e|----2-2-2-2-|----0-0-0-0-|----3-3-3-3-|----2-2-2-2-|  
B|----2-2-2-2-|----2-2-2-2-|----3-3-3-3-|----3-3-3-3-|
G|----3-3-3-3-|----2-2-2-2-|----0-0-0-0-|----2-2-2-2-|
D|----4-4-4-4-|----2-2-2-2-|----0-0-0-0-|-0--0-0-0-0-|
A|----4-4-4-4-|-0--0-0-0-0-|----2-2-2-2-|------------| What follows is identical to the
E|-2--2-2-2-2-|------------|-3--3-3-3-3-|------------| Intro...

  E                            G                    A        G
e|----0-0-0-0-----0-0-----0-0-|----3-3-3-3-----3-3-|----0-0-|-----3-3-3-3--------------|
B|----0-0-0-0-----0-0-----0-0-|----3-3-3-3-----3-3-|----2-2-|-----3-3-3-3--------------|
G|----1-1-1-1-----1-1-----1-1-|----0-0-0-0-----0-0-|----2-2-|-----0-0-0-0--------------|
D|----2-2-2-2-----2-2-----2-2-|----0-0-0-0-----0-0-|----2-2-|-----0-0-0-0--2/4--4\2----|
A|----2-2-2-2-----2-2-----x-x-|----2-2-2-2-----2-2-|-0--0-0-|-----2-2-2-2------------0-|
E|-0--0-0-0-0--0--0-0--2--2-2-|-3--3-3-3-3--3--3-3-|--------|--3--3-3-3-3--------------|
  Bm           A            G                    A        G 
e|----2-2-2-2-|----0-0-0-0-|----3-3-3-3-----3-3-|----0-0-|----3-3-3-3-----3-3------3-3--|
B|----3-3-3-3-|----2-2-2-2-|----3-3-3-3-----3-3-|----2-2-|----3-3-3-3-----3-3------3-3--|
G|----4-4-4-4-|----2-2-2-2-|----0-0-0-0-----0-0-|----2-2-|----0-0-0-0-----0-0------0-0--|
D|----4-4-4-4-|----2-2-2-2-|----0-0-0-0-----0-0-|----2-2-|----0-0-0-0-----0-0------0-0--|
A|-2--2-2-2-2-|-0--0-0-0-0-|----2-2-2-2-----2-2-|-0--0-0-|----2-2-2-2-----2-2------x-x--|
E|------------|------------|-3--3-3-3-3--3--3-3-|--------|-3--3-3-3-3--3--3-3--*2--2-2--|
                                                          *Before the bridge just use 3 on
                                                         E instead of 2.             
Bridge:
  F#                       A            C#
e|----2-2-2-2-----2-2-2-2-|----0-0-0-0-|----x-x-x-x-|
B|----2-2-2-2-----2-2-2-2-|----2-2-2-2-|----6-6-6-6-|
G|----3-3-3-3-----3-3-3-3-|----2-2-2-2-|----6-6-6-6-|
D|----4-4-4-4-----4-4-4-4-|----2-2-2-2-|----6-6-6-6-|
A|----4-4-4-4-----x-x-x-x-|-0--0-0-0-0-|-4--4-4-4-4-| Then its almost exactly as it is in the
E|-2--2-2-2-2--4--4-4-4-4-|------------|------------| verse...
  F#           A           G             D
e|----2-2-2-2-|----0-0-0-0-|----3-3-3-3-|----2-2-2-2-|  
B|----2-2-2-2-|----2-2-2-2-|----3-3-3-3-|----3-3-3-3-|
G|----3-3-3-3-|----2-2-2-2-|----0-0-0-0-|----2-2-2-2-|
D|----4-4-4-4-|----2-2-2-2-|----0-0-0-0-|-0--0-0-0-0-|
A|----4-4-4-4-|-0--0-0-0-0-|----2-2-2-2-|------------|
E|-2--2-2-2-2-|------------|-3--3-3-3-3-|------------| 
  E                            G                    A        G
e|----0-0-0-0-----0-0-----0-0-|----3-3-3-3-----3-3-|----0-0-|-----3-3-3-3--------------|
B|----0-0-0-0-----0-0-----0-0-|----3-3-3-3-----3-3-|----2-2-|-----3-3-3-3--------------|
G|----1-1-1-1-----1-1-----1-1-|----0-0-0-0-----0-0-|----2-2-|-----0-0-0-0--------------|
D|----2-2-2-2-----2-2-----2-2-|----0-0-0-0-----0-0-|----2-2-|-----0-0-0-0--2/4--4\2----|
A|----2-2-2-2-----2-2-----x-x-|----2-2-2-2-----2-2-|-0--0-0-|-----2-2-2-2------------0-|
E|-0--0-0-0-0--0--0-0--2--2-2-|-3--3-3-3-3--3--3-3-|--------|--3--3-3-3-3--------------|
  Bm           A            G                    A        G **note the difference b/w verse
e|----2-2-2-2-|----0-0-0-0-|----3-3-3-3-----3-3-|----0-0-|----3-3-3-3-----3-3-------|
B|----3-3-3-3-|----2-2-2-2-|----3-3-3-3-----3-3-|----2-2-|----3-3-3-3-----3-3-------|
G|----4-4-4-4-|----2-2-2-2-|----0-0-0-0-----0-0-|----2-2-|----0-0-0-0-----0-0-------|
D|----4-4-4-4-|----2-2-2-2-|----0-0-0-0-----0-0-|----2-2-|----0-0-0-0-----0-0-------|
A|-2--2-2-2-2-|-0--0-0-0-0-|----2-2-2-2-----2-2-|-0--0-0-|----2-2-2-2-----2-2-------|
E|------------|------------|-3--3-3-3-3--3--3-3-|--------|-3--3-3-3-3--3--3-3--2-1--| 
                                                                               ^ ^here**
************************************

| /   slide up
| \   slide down
| h   hammer-on
| x   Mute note

************************************
Suggest correction
Give kudos to tab author, rate the tab!
1 2 3 4 5
comments
print report bad tab
guest
You may want to rate the tab now too:
select rating
Wanna post a correction for this tab? Suggest correction