Oops, an error
Loading. Please wait.

Baby Britain Acoustic Tab

3,557 views 33 this week
no commentswrite comment
1 2 3 4 5
excellent!
x 2
add to favorites
launch autoscroll
font size
0
reset
how to read this tab
guitar tuner
Tab Pro tools
  • play this tab
  • loop segment
  • change instrument
  • show fretboard
  • metronome
Autoscroll
slow
fast
+/-
esc
set tempo
stop
Difficulty
intermediate
Baby Britain (Acoustic) by Elliott Smith

Tuning: BADGBE
Capo 2

Intro                                               }\
                                                    }/\
e|------------------------------------------------| }\/\
B|--0--0--0--0--0--0--0--0--0--0--0--0--0--0--0--0| }\\/\
G|--2--2--2--2--7--7--7--7--4--4--4--4--4--4--4--4| } \\/\
D|---0-----0-----5-----5-----4-----4-----5-----5--| }\ \\/\
A|2-----2-----7-----7-----5-----5-----5-----5-----| }/\ \\/\
B|------------------------------------------------| }\ \ \\x2
                                                    }/\/\ \/
 |------------------------------------------------| }\ \ \/
 |--0--0--0--0--0--0--0--0--0--0--0--0--0--0------| }/\/\/
 |--2--2--2--2--7--7--7--7--4--4--4--4--4--4------| }\ \/
 |---0-----0-----5-----5-----4-----4-----5--------| } \/
 |2-----2-----7-----7-----5-----5-----5-----4--0--| }\/
 |------------------------------------------------| }/

 Verse

 |------------------------------------------------| }\
 |--0--0--0--0--0--0--0--0--0--0--0--0--0--0--0--0| }/\
 |--2--2--2--2--7--7--7--7--4--4--4--4--0--0--0--0| }\/\
 |---0-----0-----5-----5-----4-----4-----0-----0--| }\\x2 
 |---2-----2-----7-----7-----5-----5--------------| } \/
 |0-----0-----5-----5-----3-----3-----8-----8-----| }\/
                                                    }/
 Chorus
                                                   
 |------------------------------------------------|
 |--0--0--0--0--00-0--00-0--0--0--0--0--00-0--00-0|
 |--0--0--0--0--00-0--00-0--0--0--0--0--00-0--00-0| 
 |--------------00-0--00-0--------------00-0--00-0|
 |------------------------------------------------|
 |0--2--3--7--8-----5-----0--2--3--7--8-----5-----|

 |------------------------------------------------|
 |--0--0--0--0--00-0--00-0--0--0--0--0------------|
 |--0--0--0--0--00-0--00-0--7--7--7--7------------|
 |--------------00-0--00-0---5-----5-----4--2-----|
 |---------------------------7-----7----------52--|
 |0--2--3--7--8-----7-----5-----5----/8-----------|

Of course, the actual picking pattern is
more improvisatory than this, but this
is the idea. The acoustic demo has no 
bridge, so I did not include the bridge
from the final version, but creating your 
own with the context of the given chords 
shouldn't be too difficult, and it can 
simply be omitted. In terms of precise 
timing, this song is in swing, so I've 
tabbed it so that one "-" is equivalent 
to an eigth note triplet. 

tabbed by Rob Hosier
comments
We did not receive enough feedback on this tab! Please rate:
print report bad tab
1 2 3 4 5
I want to post or [tab]
guest
You may want to rate the tab now too:
select rating
Please do not post tabs as comments. Select "correction" instead!