Oops, an error
Loading. Please wait.

Baby Britain Bass Tab

version 1
version 1

Whole song

Interactive

3,127 views 3 this week
no commentswrite comment
1 2 3 4 5
excellent!
x 3
add to favorites
launch autoscroll
font size
0
reset
guitar tuner
Tab Pro tools
  • play this tab
  • loop segment
  • change instrument
  • show fretboard
  • metronome
×
Best way to learn
"Baby Britain"
Autoscroll
slow
fast
+/-
esc
set tempo
stop
Contributor
Difficulty
intermediate
=============================================================================
                                Elliott Smith                                
                                Baby Britain
                                     XO
=============================================================================



0:16-0:31
"Sees the ocean fall and rise..."
  1 + 2 + 3 + 4 +  1 + 2 + 3 + 4 +  1 + 2 + 3 + 4 +  1 + 2 + 3 + 4 +
G|----------------|----------------|----------------|----------------|>
D|2x--2--22--22--2|------------4---|5x--5--55--55--5|----------------|>
A|----------------|0---3---7\------|----------------|3---3---3---3---|>
E|----------------|----------------|----------------|----------------|>
  1 + 2 + 3 + 4 +  1 + 2 + 3 + 4 +  1 + 2 + 3 + 4 +  1 + 2 + 3 + 4 +
<|----------------|----------------|----------------|----------------|
<|2x--2--22--22--2|--------2---4---|5---5---5\------|----------------|
<|----------------|0---3-----------|------------2---|3---3---3--33-3-|
<|----------------|----------------|----------------|----------------|

0:32-0:47
"For someone half as smart..."
    1 + 2 + 3 + 4 +  1 + 2 + 3 + 4   1 + 2 + 3 + 4 +  1 + 2 + 3 + 4 + 
G||*----------------|-------------*||----------------|----------------|>
D||*----------------|-------------*||----------------|----0--2--------|>
A||*------------2---|3---3---3---3*||------------2---|3-------2---2---|>
E||*0---2---3-------|------------[x2]0---2---3-------|----------------|>
                                     1 + 2 + 3 + 4 +  1 + 2 + 3 + 4 + 
                               <---D|----------------|----------------|
                               <---A|0---------------|3---------------|
0:48-1:19
"We knocked another couple back..."
  1 + 2 + 3 + 4 +  1 + 2 + 3 + 4 +  1 + 2 + 3 + 4 +  1 + 2 + 3 + 4 + 
G|----------------|----------------|----------------|----------------|>
D|2x--2--22--22--2|----------------|----------------|----------------|>
A|----------------|0---3---7\------|----0---2---0---|3---2---0-------|>
E|----------------|------------2---|3---------------|------------3---|>
  1 + 2 + 3 + 4 +  1 + 2 + 3 + 4 +  1 + 2 + 3 + 4 +  1 + 2 + 3 + 4 + 
<|----------------|----------------|----2---4---2---|5---4--4--------|>
<|2x--2--22--22--2|--------2---4---|5---------------|--------7--75---|>
<|----------------|0---3-----------|----------------|---------------5|>
<|----------------|----------------|----------------|----------------|>
  1 + 2 + 3 + 4 +  1 + 2 + 3 + 4 +  1 + 2 + 3 + 4 +  1 + 2 + 3 + 4 +
<|----------------|----------------|----------------|----------------|>
<|----------------|--------2---4---|5---5---5\------|----------------|>
<|----------5h7---|0---3-----------|------------2---|3---3---3---3---|>
<|0---0---0-------|----------------|----------------|----------------|>
  1 + 2 + 3 + 4 +  1 + 2 + 3 + 4 +  1 + 2 + 3 + 4 +  1 + 2 + 3 + 4 + 
<|--------4-7-----|----------------|----------------|----------------|
<|------57----7-5-|----------------|----------------|----------------|
<|7---7-----------|0---3---7\------|----0---2---0---|3---3--33--33--3|
<|----------------|------------2---|3---------------|----------------|

1:20-1:35
"For someone half as smart..."
    1 + 2 + 3 + 4 +  1 + 2 + 3 + 4   1 + 2 + 3 + 4 +  1 + 2 + 3 + 4 + 
G||*----------------|-------------*||----------------|----------------|>
D||*----------------|-------------*||----------------|----------------|>
A||*------------2---|3---3---3---3*||------------2---|3---3--02---2---|>
E||*0---2---3-------|------------[x2]0---2---3-------|----------------|>
                                     1 + 2 + 3 + 4 +  1 + 2 + 3 + 4 + 
                               <---D|----------------|----------------|
                               <---A|0---------------|3---------------|
1:36-1:43
"You got a look in your eye..."
  1+2+3+4+ 1+2+3+4+ 1+2+3+4+ 1+2+3+4+
G|--------|--------|--------|---------|
D|--------|--------|--------|---------|
A|3-------|4-------|5-------|6--\2----|
E|--------|--------|--------|---------|

1:44-1:59
  1 + 2 + 3 + 4 +  1 + 2 + 3 + 4 +  1 + 2 + 3 + 4 +  1 + 2 + 3 + 4 +  
G|----------------|----------------|----------------|----------------|>
D|----------------|----------------|----------------|----------------|>
A|------------2---|3---3--33--33--3|------------2---|3---3--33--20---|>
E|0---2---3-------|----------------|0---2---3-------|---------------3|>
  1 + 2 + 3 + 4 +  1 + 2 + 3 + 4 +  1 + 2 + 3 + 4 +  1 + 2 + 3 + 4 + 
<|----------------|----------------|----------------|----------------|
<|----------------|----0--2--------|7---7--77--77--7|----------------|
<|------------2---|3-------2---2/--|----------------|3---------------|
<|0---2---3-------|----------------|----------------|----------------|


2:00-2:15
"The light was on but it was dim...
  1 + 2 + 3 + 4 +  1 + 2 + 3 + 4 +  1 + 2 + 3 + 4 +  1 + 2 + 3 + 4 +
G|----------------|----------------|----------------|----------------|>
D|2x--2x--2x--2x--|--------2---4---|5x--5x--5x------|----------------|>
A|----------------|0---3-----------|------------2x--|3x--3x--3x--3\--|>
E|----------------|----------------|----------------|----------------|>
  1 + 2 + 3 + 4 +  1 + 2 + 3 + 4 +  1 + 2 + 3 + 4 +  1 + 2 + 3 + 4 + 
<|----------------|----------------|----------------|----------------|
<|----------------|----------------|----------------|----------------|
<|----------------|0---3---7\------|----0---2---0---|3x--3x--3x--3--5|
<|0---0---0---0---|------------2---|3---------------|----------------|

2:16-2:31
"London Bridge is safe and sound..."
  1 + 2 + 3 + 4 +  1 + 2 + 3 + 4 +  1 + 2 + 3 + 4 +  1 + 2 + 3 + 4 +
G|----------------|----------------|----------------|----------------|>
D|2x--2--22--22--2|--------2---4---|5---5---5-------|----------------|>
A|----------------|0---3-----------|------------2---|3---3---3--20---|>
E|----------------|----------------|----------------|---------------3|>
  1 + 2 + 3 + 4 +  1 + 2 + 3 + 4 +  1 + 2 + 3 + 4 +  1 + 2 + 3 + 4 +
<|----------------|----------------|----------------|----------------|
<|----------------|----------------|----------------|----------------|
<|----------------|0---3---7\------|----0---2---0---|3---3--33--33--3|
<|0---0---0---0---|------------2---|3---------------|----------------|

2:32-2:47
"For someone half as smart..."
    1 + 2 + 3 + 4 +  1 + 2 + 3 + 4   1 + 2 + 3 + 4 +  1 + 2 + 3 + 4 + 
G||*----------------|-------------*||----------------|----------------|>
D||*----------------|-------------*||----------------|----------------|>
A||*------------2---|3---3---3---3*||------------2---|3---3--02---2---|>
E||*0---2---3-------|------------[x2]0---2---3-------|----------------|>
                                     1 + 2 + 3 + 4 +  1 + 2 + 3 + 4 + 
                               <---D|----------------|----------------|
                               <---A|0---0---0---0---|3---3---3---3---|

2:48-END
  1 + 2 + 3 + 4 +  1 + 2 + 3 + 4 +  1 + 2 + 3 + 4 +  1 + 2 + 3 + 4 + 
G|9---7-----------|----------------|9---7-----------|----------------|>
D|--------9---7---|5---------------|--------9---7---|5---------------|>
A|----------------|----------------|----------------|----------------|>
E|----------------|----------------|----------------|----------------|>
  1 + 2 + 3 + 4 +  1 + 2 + 3 + 4 +  1 + 2 + 3 + 4 +  1 + 2 + 3 + 4 + 
<|----------------|----------------|----------------|----------------||
<|----------------|----------------|----------------|----------------||
<|------------2---|3------02------/|12--------------|3---------------||
<|0---2---3-------|----------------|----------------|----------------||




Tab by A. Romanski
comments
We did not receive enough feedback on this tab! Please rate:
print report bad tab
1 2 3 4 5
I want to post or [tab]
guest
You may want to rate the tab now too:
select rating
Please do not post tabs as comments. Select "correction" instead!