Oops, an error
Loading. Please wait.

Between The Bars Bass Tab

version 1
version 1

Whole song

Interactive

1,926 views 12 this week
no commentswrite comment
1 2 3 4 5
excellent!
x 3
add to favorites
launch autoscroll
font size
0
reset
guitar tuner
Tab Pro tools
  • play this tab
  • loop segment
  • change instrument
  • show fretboard
  • metronome
Autoscroll
slow
fast
+/-
esc
set tempo
stop
Difficulty
novice
Between the Bars by Elliot Smith

Hey guys, a newbie tab here. Very easy, but an awesome song!
I have put the counting (3/4) above the tabs to make it extra easy.
Enjoy playing!

>INTRO

  1-2-3- 1-2-3- 1-2-3- 1-2-3- 1-2-3- 1-2-3- 1-2-3- 1-2-3-
G|------|------|------|------|------|------|------|------|
D|5-----|5-----|5-----|5-----|5-----|5-----|5-----|5-----|
A|------|------|------|------|------|------|------|------|
E|------|------|------|------|------|------|------|------|  

>VERSE 

  1-2-3- 1-2-3- 1-2-3- 1-2-3- 1-2-3- 1-2-3- 1-2-3- 1-2-3-
G|------|------|------|------|------|------|------|------|
D|5-----|5-----|------|----7-|8-----|8-----|7-----|7-----|
A|------|------|6-----|6-----|------|------|------|------|
E|------|------|------|------|------|------|------|------|  

  1-2-3- 1-2-3- 1-2-3- 1-2-3- 1-2-3- 1-2-3- 1-2-3- 1-2-3-
G|------|------|------|------|------|------|------|------|
D|5-----|5-----|------|----7-|8-----|4-----|------|------|
A|------|------|6-----|6-----|------|------|6-----|6-----|
E|------|------|------|------|------|------|------|------|  2x

>REFRAIN

  1-2-3- 1-2-3- 1-2-3- 1-2-3- 1-2-3- 1-2-3- 1-2-3- 1-2-3-
G|------|------|------|--5-7-|------|------|------|------|
D|------|------|5---7-|8-----|------|------|------|------|
A|6-----|8-----|------|------|6-----|8-----|7-----|7-----|
E|------|------|------|------|------|------|------|------|  

  1-2-3- 1-2-3- 1-2-3- 1-2-3- 1-2-3- 1-2-3- 1-2-3- 1-2-3-
G|------|------|------|--5-7-|------|------|------|------|
D|------|------|5---7-|8-----|------|------|------|------|
A|6-----|8-----|------|------|6-----|6-----|6-----|6-----|
E|------|------|------|------|------|------|------|------|  

>VERSE

1-2-3- 1-2-3- 1-2-3- 1-2-3- 1-2-3- 1-2-3- 1-2-3- 1-2-3-
G|------|------|------|------|------|------|------|------|
D|5-----|5-----|------|----7-|8-----|8-----|7-----|7-----|
A|------|------|6-----|6-----|------|------|------|------|
E|------|------|------|------|------|------|------|------|  

  1-2-3- 1-2-3- 1-2-3- 1-2-3- 1-2-3- 1-2-3- 1-2-3- 1-2-3-
G|------|------|------|------|------|------|------|------|
D|5-----|5-----|------|----7-|8-----|4-----|------|------|
A|------|------|6-----|6-----|------|------|6-----|6-----|
E|------|------|------|------|------|------|------|------|  2x

>REFRAIN
  1-2-3- 1-2-3- 1-2-3- 1-2-3- 1-2-3- 1-2-3- 1-2-3- 1-2-3-
G|------|------|------|--5-7-|------|------|------|------|
D|------|------|5---7-|8-----|------|------|------|------|
A|6-----|8-----|------|------|6-----|8-----|7-----|7-----|
E|------|------|------|------|------|------|------|------|  

  1-2-3- 1-2-3- 1-2-3- 1-2-3- 1-2-3- 1-2-3- 1-2-3- 1-2-3-
G|------|------|------|--5-7-|------|------|------|------|
D|------|------|5---7-|8-----|------|------|------|------|
A|6-----|8-----|------|------|6-----|6-----|6-----|------|
E|------|------|------|------|------|------|------|------|  

Created by WhyFeaBee
comments
We did not receive enough feedback on this tab! Please rate:
print report bad tab
1 2 3 4 5
I want to post or [tab]
guest
You may want to rate the tab now too:
select rating
Please do not post tabs as comments. Select "correction" instead!