Oops, an error
Loading. Please wait.

Bottle Up And Explode Bass Tab

version 1
version 1

Whole song

Interactive

925 views 1 this week
no commentswrite comment
1 2 3 4 5
please rate
add to favorites
launch autoscroll
font size
0
reset
guitar tuner
Autoscroll
slow
fast
+/-
esc
set tempo
stop
Help us to improve Ultimate-Guitar.com Take our survey!
×
Contributor
Difficulty
novice
=============================================================================
                               Elliott Smith
                           Bottle Up and Explode!
                                     XO                                     
=============================================================================

Standard EADG tuning.
                                
Start playing at 0:44 right before he says "Bottle up..."

  1 + 2 + 3 + 4 +  1 + 2 + 3 + 4 +  1 + 2 + 3 + 4 +  1 + 2 + 3 + 4 +
G|----------------|----------------|----------------|----------------|
D|----------------|----------------|-----------1----|----------------|
A|2-2-2-2-2-2-2-2-|3-3-3-3-3-3-3-3-|4---4---4-------|----------------|
E|----------------|----------------|---------------0|--0-0-0-6-6-6-6-|

  1 + 2 + 3 + 4 +  1 + 2 + 3 + 4 +  1 + 2 + 3 + 4 +  1 + 2 + 3 + 4 +
G|----------------|----------------|----------------|----------------|
D|----------------|----------------|--------------2-|4-4-2-4---6-6-6-|
A|----------------|----------------|----------------|----------------|
E|5-------5-4-5---|4-----\0--0-0-0-|2-2-2-2-2-2-2---|----------------|

  1 + 2 + 3 + 4 +           1 + 2 + 3 + 4 +
G|6---------------|       ||R--------------R||
D|----------------|       ||E--------------E||
A|----------------|       ||S--------------S||
E|----------------|       ||T--------------T||[x13]
_____________________________________________________________________________

The bass picks up again at about 1:32 on "Bottle up..."

  1 + 2 + 3 + 4 +  1 + 2 + 3 + 4 +  1 + 2 + 3 + 4 +  1 + 2 + 3 + 4 +
G|----------------|----------------|----------------|----------------|
D|----------------|----------------|-----------1----|----------------|
A|2-2-2-2-2-2-2-2-|3-3-3-3-3---2-3-|4---4---4-------|----------------|
E|----------------|----------4-----|---------------0|--0-0-0-6-6-6-6-|

  1 + 2 + 3 + 4 +  1 + 2 + 3 + 4 +  1 + 2 + 3 + 4 +  1 + 2 + 3 + 4 +
G|----------------|----------------|----------------|----------------|
D|--------7-6-7---|6-----\2--2-2-2-|4-4-4-4-4-4-4---|----------------|
A|----------------|----------------|--------------4-|4-4---------2-3-|
E|5---------------|----------------|----------------|----4\2-2-4-----|
_____________________________________________________________________________

                              Guitar Solo
  1 + 2 + 3 + 4 +  1 + 2 + 3 + 4 +  1 + 2 + 3 + 4 +  1 + 2 + 3 + 4 +
G|----------------|----------------|----------------|----------------|
D|----------------|----------------|----------------|----------------|
A|4-----4-----4---|----------------|----------------|----------------|
E|----4-----4---4-|5---5-----5-5-5\|0---0-0---0-0-0-|4---4-----4-4-0-|

  1 + 2 + 3 + 4 +  1 + 2 + 3 + 4 +  1 + 2 + 3 + 4 +  1 + 2 + 3 + 4 +
G|----------------|----------------|----------------|----------------|
D|----------------|----------------|----------------|----------------|
A|----------------|------------2-3-|4---4-4---4-----|------------4-6-|
E|5---5-----5-5-0-|2---0-2---0-----|------------2-4-|5---5-5---5-----|

  1 + 2 + 3 + 4 +  1 + 2 + 3 + 4 +  1 + 2 + 3 + 4 +  1 + 2 + 3 + 4 +
G|----------------|----------------|----------------|----------------|
D|----------------|----------------|----------------|----------------|
A|7---7-7---7-----|----------------|----------------|----------------|
E|------------2-3-|4---4-4---4-2-4-|5---5-5---5-4\--|2---2-2---2-2-0-|
_____________________________________________________________________________

  1 + 2 + 3 + 4 +  1 + 2 + 3 + 4 +  1 + 2 + 3 + 4 +  1 + 2 + 3 + 4 +
G|----------------|----------------|----------------|----------------|
D|----------------|----------------|-----------1----|----------------|
A|2-----2---2-2-2-|3---3-------2-3-|4---4---4-------|----------------|
E|----------------|------4---4-----|---------------0|--0-0-0-6-6-6-6-|

  1 + 2 + 3 + 4 +  1 + 2 + 3 + 4 +  1 + 2 + 3 + 4 +  1 + 2 + 3 + 4 +
G|----------------|----------------|----------------|----------------|
D|----------------|----------------|----------4-2---|----------------|
A|----------------|----------------|--------------4-|3-2-------------|
E|5-----5-----5---|0-----0-----0---|2---2-2-2-------|----5-4-----4-0-|

  1 + 2 + 3 + 4 +  1 + 2 + 3 + 4 +  1 + 2 + 3 + 4 +  1 + 2 + 3 + 4 +
G|----------------|----------------|----------------|----------------|
D|----------------|----------------|----------------|----------------|
A|----------------|----------------|----------------|----------------|
E|5-----5-----5\--|0-----0-----0---|2---2-2-2-2-2-2-|2-2-2/4-4-4-4-0-|

  1 + 2 + 3 + 4 +  1 + 2 + 3 + 4 +  1 + 2 + 3 + 4 +  1 + 2 + 3 + 4 +
G|----------------|----------------|----------------|----------------|
D|----------------|----------------|----------------|----------------|
A|----------------|----------------|----------------|----------------|
E|5-----5-----5\--|0-----0-----0---|2~~~~~~~~~~~~~~~|~~~~~~~~~~~~~~~~|
  



Tab by A. Romanski
Suggest correction new What's this?
You can suggest a correction to this tab. Community and Mods will review your correction and vote to approve or reject it.
comments
We did not receive enough feedback on this tab! Please rate:
print report bad tab
1 2 3 4 5
I want to post or [tab]
guest
You may want to rate the tab now too:
select rating
Please do not post tabs as comments. Select "correction" instead!