Oops, an error
Loading. Please wait.

Christian Brother Tab

10,857 views 3 this week
5 commentsread comments
1 2 3 4 5
please rate
add to favorites
launch autoscroll
font size
0
reset
how to read this tab
guitar tuner
Autoscroll
slow
fast
+/-
esc
set tempo
stop
Help us to improve Ultimate-Guitar.com Take our survey!
×
Difficulty
advanced
Elliott Smith - Christian Brother

-tabbed by Simon Erll (www.myspace.com/simonerll)
-lyrics taken from www.azlyrics.com (im pretty sure they're not completely right but 
find other...)

!Im not sure about the names of the Chords, especiallay C6sus4, so look at the bottom 
explanations!
Here we go:


Intro = Chorus:
A#sus2   A#m	Dbsus2    Db/C    C6sus4(?)    Db 		2x

Riff1			 Riff2
-----------------------  ----------------------|
-----1----------2------  ------1---------------|
-----------------------  ----------------------|
-----------------------  ----------------------|
---3---3--0h3----3--0--  ----3--3----------0---|
-1------------1--------  --1------1--1--3------|

A#			    A#m			Riffs
No bad dream fucker's gonna boss me around

A#			 A#m			Riffs
Christian brothers gonna take him down

Eb/A#			 F#	A#
But it can't help me get over

      A#m  Dbsus2
Don't be   cross

     Db/C	 C6sus4    Db    A#
It's sick what I want  (i always understand "cigar"... dunno ^^)

     A#m      Dbus2	 Db/C   C6sus4    Db	Riffs
I've seen the boss blink on and off

A#			    A#m			Riffs
Fake concerns is what's the matter, man

A#					A#m		Riffs
And you think I ought to shake your motherfucking hand

Eb/A#			F#	A#
Well I know how much you care

      A#m  Dbsus2
Don't be   cross

     Db/C	 C6sus4    Db    A#
It's sick what I want

     A#m      Dbus2	 Db/C   C6sus4    Db	A#
I've seen the boss blink on and off

     A#m     Dbsus2  Db/C     C6sus4	Db
Come here by me,  I  want you here

     A#m     Dbsus2  		Db/C   C6sus4	Db
Nightmares become me, it's so fucking  clear

(While Solo)
A#	A#m	F5 / Riff1	A#	A#m	F5 / Riff1	Eb/A#	F#


      A#m  Dbsus2
Don't be   cross

     Db/C	 C6sus4    Db    A#
It's sick what I want

     A#m      Dbus2	 Db/C   C6sus4    Db	A#
I've seen the boss blink on and off

     A#m     Dbsus2  Db/C     C6sus4	Db
Come here by me,  I  want you here

     A#m     Dbsus2  		Db/C   C6sus4	Db
Nightmares become me, it's so fucking  clear

     A#m     Dbsus2  		Db/C   C6sus4	Db
Nightmares become me, it's so fucking clear

___________________________________________________________
Chords:____________________________________________________

A#  A#m	 A#sus2  Db  Dbsus2   Db/C  C6sus4  Eb/A#  F#
-1- -6-	 -1-    -4-  -4-      -x-   -3-     -x-    -2-
-3- -6-	 -1-    -6-  -4-      -6-   -6-     -x-    -2-
-3- -6-	 -3-    -6-  -6-      -x-   -5-     -8-    -3-
-3- -8-	 -3-    -6-  -6-      -6-   -6-     -8-    -4-
-1- -8-	 -1-    -4-  -4-      -3-   -3-     -6-    -4-
-x- -6-	 -x-    -x-  -x-      -x-   -x-     -6-    -2-
____________________________________________________________
____________________________________________________________

if you have questions or find bad mistakes or know the right name of this C6sus4 Chord 
me:) simon.erll@googlmail.com

greets
Suggest correction
What's this?
You can suggest a correction to this tab. Community and Mods will review your correction and vote to approve or reject it.
comments
We did not receive enough feedback on this tab! Please rate:
print report bad tab
1 2 3 4 5
5 comments total. Showing first comments.
-1 reply
queendog77 138 wrote on April 24 2008, 01:36 am

----------------------- --------------------|
-----1---------2--p1--- -----1--------------|
----------------------- --------------------|
---3-----0h3-(3)-3-1--- ---3----------------|
----------------------- ---------------0----|
-1-----1--------------- -1-----1-1-1-3------|

-1 reply
queendog77 138 wrote on April 24 2008, 01:39 am

whoops, let's try that again.

----------------------- --------------------|
-----1---------2---p1-- -----1--------------|
----------------------- --------------------|
---1-----0h3-(3)-3-1--- ---1----------------|
----------------------- ---------------0----|
-1-----1--------------- -1-----1-1-1-3------|

just a quibble. thanks so much for the sweet tab, mr. unregistered!

0 reply
queendog77 138 wrote on April 24 2008, 01:40 am

fuuuucccckkkk meee.

----------------------- --------------------|
-----1---------2---p1-- -----1--------------|
----------------------- --------------------|
---1-----1h3-(3)-3-1--- ---1----------------|
----------------------- ---------------0----|
-1-----1--------------- -1-----1-1-1-3------|

guest
You may want to rate the tab now too:
select rating
Please do not post tabs as comments. Select "correction" instead!