Oops, an error
Loading. Please wait.

Christian Brothers Tab

version 2
version 2

Whole song

Interactive

5,404 views 3 this week
1 commentread comment
1 2 3 4 5
worth learning
x 2
add to favorites
launch autoscroll
font size
0
reset
how to read this tab
guitar tuner
Tab Pro tools
  • play this tab
  • loop segment
  • change instrument
  • show fretboard
  • metronome
Autoscroll
slow
fast
+/-
esc
set tempo
stop
Contributor
Christian Brothers

  Tune down a full step
  E: 476454               Bmaj7: XX6446
  Dbm: 9(11)(11)999       E*: 779997
  E(add9): 022102         Db: 446664
  Abm: XX6444             C#m: 446654
  F#: 244322              A: 577655

 Vs1
        Db                       C#m
No bad dream fucker's gonna boss me around     (Riff 1) (Riff 2)
        Db                       C#m
Christian brothers gonna take him down        (Riff 1) (Riff 2a)
 Br1
        F#                   A   Db
     But it can't help me get over 
 Chorus
           Dbm E(add9)   Abm  Bmaj7   E*
     Don't be cross it's sick what I want
    E     DbM     E(add9)    Abm    Bmaj7      E*
     I've seen the boss blink on and off         
         
          Riff 1 3x's             Riff 2
 Vs2
     Fake concerns is what's the matter man
     And you think I ought to shake your mother fucking hand
 
 Br2 
     Well I know how much you care

               CHORUS

 Ch2   (same chords)
     Come here by me I want you here
     Nightmares become me it's so fucking clear

                SOLO

              CHORUS
              CHORUS 2
         Repeat last line

  Riff 1                           Riff 2
    |---------|--------------|        |---------|-----------|
    |-----4---|-------5------|        |-----4---|-----------|
    |---------|-----4--------|        |---------|-----------|
    |---6-----|-4h6-----6--4-|        |---6-----|-----------|
    |---------|--------------|        |---------|-------3-4-|
    |-4-----4-|--------------|        |-4-----4-|-4-4-6-----|

  Riff 2a
    |---------|-----------|
    |-----4---|-----------|
    |---------|-----------|
    |---6-----|-----------|
    |---------|-----------|
    |-4-----4-|-4-4-4-3---| 

      Solo
    |-11-11-9---------------------|
    |------------12-11-12-12-11-9-|
    |-----------------------------|         Riff 1        Riff 2
    |-----------------------------|
    |-----------------------------|
    |-----------------------------|
       

    
    |-11--9--7--6-7--7h11--11p9p7--|
    |------------------------------|
    |------------------------------|         Riff 1        Riff 2a
    |------------------------------|
    |------------------------------|
    |------------------------------|

    |-6---6-------------------|
    |---7-----------------7---|
    |----------6-8-6----6-----|
    |-----------------7-------|
    |-------------------------|
    |-------------------------|
           Listen to album for timings

comments
We did not receive enough feedback on this tab! Please rate:
print report bad tab
1 2 3 4 5
1 comment total.
0 reply
Mike_Valenti wrote on June 20 2009, 05:06 pm

wrong key

I want to post or [tab]
guest
You may want to rate the tab now too:
select rating
Please do not post tabs as comments. Select "correction" instead!