Oops, an error
Loading. Please wait.

Coast To Coast Tab

4,175 views 3 this week
no commentswrite comment
1 2 3 4 5
please rate
add to favorites
launch autoscroll
font size
0
reset
how to read this tab
guitar tuner
Autoscroll
slow
fast
+/-
esc
set tempo
stop
Help us to improve Ultimate-Guitar.com Take our survey!
×
Contributor
Difficulty
Tuning
intermediate
C G C F A D
-------------------------------------------------------------------------------
                             Coast To Coast - Elliott Smith
-------------------------------------------------------------------------------

Tabbed by: thePOMPANO
Email: thepompano@gmail.com

Tabbed out by request from Justin, this version is based off of a live bootleg ("Live at 
Steamboat on 2003-05-03") from archive.org. The numbers on the bottom indicate 
fingering; travis-pick throughout.

**Tuned to CAFCGC: 1 step down from standard, both Es dropped an additional 1 step**

Intro
C |--0-(0)-x--x--//--x-------|-0--0--0--0---0---0---|
A |--3--2--x--x--//--x-------|-3--3--2--3---6---8---|
F |--2--2--3--2--//--2-0-----|-2--0--3--4---7---9---|
C |--0--0--0--0--//--0---3-0-|-0--2--0--0---0---0---|
G |--0--x--x--x--//--x-------|-0--x--x--x---x---x---|
C |--0--2--3--3--//--3-------|-0--2--4--5---8---10--|
     3  3  3  1      1   3     3  3  1  1   1   1
     2  2  2  2      2         2  2  2  2   2   2
        1                         1  3  3   3   3

(play through the first bit of the intro once;
on the second time through, substitute the last chord for that little run)

Verse
C |--0-(0)-x--x--//--x-------|-0--0--x--0----x-----0--|
A |--3--2--x--x--//--x-------|-3--2--x--0----3-----3--|
F |--2--2--3--2--//--2-0-----|-2--0--2--4----2-----4--|
C |--0--0--0--0--//--0---3-0-|-0--2--3--5----0-----0--|
G |--0--x--x--x--//--x-------|-0--x--x--x----x-----x--|
C |--0--2--3--3--//--3-------|-0--2--3--5----3--4--5--|
     3  3  3  1      1   3     3  3  1  1    3  3  1
     2  2  2  2      2         2  2  3  3    1     2
        1                         1  2  2    2     3

C |--0-(0)-x--x--//--x-------|-0--0--0--0--(0)---(0)--|
A |--3--2--x--x--//--x-------|-3--3--2--3---3-----3---|
F |--2--2--3--2--//--2-0-----|-2--0--3--4---2-----0---|
C |--0--0--0--0--//--0---3-0-|-0--2--0--0---0-----2---|
G |--0--x--x--x--//--x-------|-0--x--x--x---x--2--3---|
C |--0--2--3--3--//--3-------|-0--2--4--5---3-----x---|
     3  3  3  1      1   3     3  3  1  1   3  1  3
     2  2  2  2      2         2  2  2  2   1     1
        1                         1  3  3   2     2

Chorus #1
C |--0--0-(0)----0--|
A |--3--3--3-----3--| (if you can't help it, then just...)
F |--2--4--2-----0--|
C |--0--0--0-----2--|
G |--0--x--x--2--3--|
C |--0--5--3-----x--|
     3  1  3  1  3
     2  2  1     1
        3  2     2

(played the first time, this goes to the second chorus immediately)

Chorus #2
C |--0h2p0-----------------|-0--0------------------------------| (it's really easy,
A |--3---------------------|-3--2------------------------------|  i believe i'll...)
F |--2-----one measure-----|-2--2------------------------------| (second part x4)
C |--0----of just this-----|-0--0--0h2p0h3-0-7h9-0-10-10-10-10-|
G |--0-(w/random pulloffs)-|-0--0--0h2p0h3-0-7h9-0-10-10-10-10-|
C |--0---------------------|-0--0--0h2p0h3-0-7h9-0-10-10-10-10-|
     3 2                     3  2
     1                       1  1

Bridge
C |--0--0--0--0--|
A |--0--0--0--0--| (you belong, tagging along...)
F |--0--0--0--0--|
C |--7--10-5--8--|
G |--7--10-5--8--|
C |--7--10-5--8--|

** From here on out, play the intro with the 0670x8 ending, then alternate verse + 
#1 through the "coast to coast" bit.  The song pretty

much ends on chorus #1 with the 0670x8/0890x10 ending from the intro, followed by the 
open-C thing. **
comments
We did not receive enough feedback on this tab! Please rate:
print report bad tab
1 2 3 4 5
I want to post or [tab]
guest
You may want to rate the tab now too:
select rating
Please do not post tabs as comments. Select "correction" instead!