Oops, an error
Loading. Please wait.

Coming Up Roses Tab

version 3
version 3

Whole song

9,150 views 6 this week
no commentswrite comment
1 2 3 4 5
accurate
x 3
add to favorites
launch autoscroll
font size
0
reset
how to read this tab
guitar tuner
Autoscroll
slow
fast
+/-
esc
set tempo
stop
Help us to improve Ultimate-Guitar.com Take our survey!
×
Author
Difficulty
novice
Ellioth Smith - Coming up Roses

Tabbed By alcesgabbo


1 tune down

In this tab there isn't show the strumming

Intro:
      |  G         |            | Bb      |   F    | Em     |       | Eb      |          |
     D|------------|------------|---------|-1---1--|-0-0----|-0-0---|---------|----------|
     A|-0--0--0--0-|------------|-3---3---|-1---1--|-0-0----|-0-0---|---------|-----0-1-3|
     F|(0)(0)(0)(0)|------------|-3---3---|-2---2--|-0-0----|-0-0---|-3-3-3-3-|-3-3------|
     C|-5--4--2--0-|-2/3-2--0---|-3---3---|-3---3--|-2-2----|-2-2---|-1-1-1-1-|-1--------|
     G|------------|----------3-|-1---1---|-3---3--|-2-2----|-2-2---|---------|----------|
     D|------------|------------|---------|-1---1--|-0-0----|-0-0---|---------|----------|

      |Bb       | C       | Eb    | Bb      |C         | C/G      |Eb/Bb    | F       |
     D|---------|---------|-------|---------|----------|----------|---------|---------|
     A|---------|-1---1---|-------|-3---3p1-|-1-1-1--1-|----------|---4-4-4-|-1-1-1-1-|
     F|-3---3---|-0---0---|-3-2-3-|-3-------|-0-0-0--0-|----------|---3-3-4-|-2-2-2-2-|
     C|-3---3---|---------|-------|-3-3-----|-2-2-2----|----------|---1-1-1-|-3-3-3-3-|
     G|-1---1---|-3---3---|-------|-1-------|-3-3-3----|----------|-1-------|-3-3-3-3-|
     D|---------|---------|-------|---------|----------|3-3-3-----|---------|---------|


VERSE:

Bb	C	D#	Bb	C	D#	Bb	C

x	x	x	6	3	6	6	8	
1	3	6	8	3	6	8	10
3	5	8	8	2	5	8	10
3	5	8	7	0	0	7	9	
3	5	8	6	1	4	6	8
1	3	6	6	0	0	6	8


BRIDGE

D#	Gm	C	D#	Gm	C	D

6	3	3	6	3	3	5
6	5	3	6	5	3	5
5	5	2	5	5	2	4
0	3	0	0	3	0	0
4	3	1	4	3	1	1
0	3	0	0	3	0	0

D#	Gm	C	D#	D

6	3	3	6	5
6	5	3	6	5
5	5	2	5	4
0	3	0	0	0
4	3	1	4	1
0	3	0	0	0

CHORUS

G	Bb	F	Em	Eb

3	x	1	0	x
2	1	3	2	1
0	3	3	2	1
0	3	2	0	3
0	3	1	0	4
3	1	1	0	3

Bb	C	Eb	Bb	C	C/G	Eb	F

x	x	x	x	x	3	x	1
1	3	1	1	3	3	1	3
3	2	1	3	2	2	1	3
3	0	3	3	0	0	3	2
3	1	4	3	1	1	4	1
1	0	3	1	0	0	3	1
Suggest correction
What's this?
You can suggest a correction to this tab. Community and Mods will review your correction and vote to approve or reject it.
comments
We did not receive enough feedback on this tab! Please rate:
print report bad tab
1 2 3 4 5
guest
You may want to rate the tab now too:
select rating
Please do not post tabs as comments. Select "correction" instead!