Oops, an error
Loading. Please wait.

Division Day Tab

4,542 views 1 this week
no commentswrite comment
1 2 3 4 5
please rate
add to favorites
launch autoscroll
font size
0
reset
how to read this tab
guitar tuner
Autoscroll
slow
fast
+/-
esc
set tempo
stop
Help us to improve Ultimate-Guitar.com Take our survey!
×
Author
Difficulty
intermediate
-------------------------------------------------------------------------------
                             Divsion Day (acoustic) - Elliott Smith
-------------------------------------------------------------------------------
Tabbed by:Shoestring (crabby)
Email: mrcrabby4@hotmail.com

Tuning: Full Step Down

e|---------------------------------|
B|---------------------------------|
G|--7------------------------------|
D|--7-(repeat-manytimes)-slide-to--|
A|--5------------------------------|
E|--5------------------------------|

e|---------------------------------------------------------------------------------|
B|---------------------------------------------------------------------------------|
G|---------------------------------------------------------------------------------|
D|-----------12--------------------5-------9---------------------------------------|
A|-----------12--------------------5-------9---------------------------------------|
E|-----------10--------------------3-------7---------------------------------------|
  there was a grown man dying from fright, so surprised at the things he'd
e|-----------------------------------------------------------------------------------|
B|-----------------------------------------------------------------------------------|
G|-1---------------------------------------------------------1-----------------------|
D|-0-----------12-------------5-------------9----------------0-----------------------|
A|-2-----------12-------------5-------------9----------------2-----------------------|
E|-0-----------10-------------3-------------7----------------------------------------|
  seen, with a giant fantasy life, running round on feet of clay.
e|-------------------------------------------------------------3----------------------|
B|-7-------------------7------------------------------2--------3----------------------|
G|-7-----7-------------7--------7----------4----------2--------0----------------------|
D|-5-----7-------------5--------7----------4----------2--------0----------------------|
A|-5-----5-------------5--------5----------2----------0--------2----------------------|
E|-------------------------------------------------------------3----------------------|
  Naked except for a perpatual debt that couldn't be stripped away
e|---2------------3---------2----------3------2-----------------2----------------------|
B|---3------------3---------3----------3------3--------2--------3-----2----------------|
G|---2------------0---------2----------0------2--------2--------2-----2----------------|
D|---0------------0---------0----------0------0--------2--------0-----2----------------|
A|----------------2--------------------2---------------0--------------0----------------|
E|----------------3--------------------3-----------------------------------------------|
  An unrightable wrong that moved him along closer to division day

e|---------------------------------------------------------------------------------|
B|---------------------------------------------------------------------------------|
G|---------------------------------------------------------------------------------|
D|-----------12--------------------5-------9---------------------------------------|
A|-----------12--------------------5-------9---------------------------------------|
E|-----------10--------------------3-------7---------------------------------------|
  Spent a long time living with that,      never could give it a
e|-----------------------------------------------------------------------------------|
B|-----------------------------------------------------------------------------------|
G|-1-------------------------------------------------------------------1-------------|
D|-0-----------12-------------5-------------9--------------------------0-------------|
A|-2-----------12-------------5-------------9--------------------------2-------------|
E|-0-----------10-------------3-------------7----------------------------------------|
 name and whenyoudon'tknowwhatyou're        it makes it much harder to take
e|-------------------------------------------------------------3----------------------|
B|-7-------------------7------------------------------2--------3----------------------|
G|-7-----7-------------7--------7----------4----------2--------0----------------------|
D|-5-----7-------------5--------7----------4----------2--------0----------------------|
A|-5-----5-------------5--------5----------2----------0--------2----------------------|
E|-------------------------------------------------------------3----------------------|
  mostly they'd meet when he was asleep and, have some sick exchange
e|---2------------3---------2----------3------2-----------------2----------------------|
B|---3------------3---------3----------3------3--------2--------3-----2----------------|
G|---2------------0---------2----------0------2--------2--------2-----2----------------|
D|---0------------0---------0----------0------0--------2--------0-----2----------------|
A|----------------2--------------------2---------------0--------------0----------------|
E|----------------3--------------------3-----------------------------------------------|
 that stuck him as wrong and moved him along closer to division day

Solo
e|--2-----3--------------------------2-----3--------------------------------------------|
B|--3-----3--------------------------3-----3--------------------------------------------|
G|--2-----0-----4-----1--------------2-----0-----4--5---1-------------------------------|
D|--0-----0-----4-----2--------------0-----0-----4--4---2-------------------------------|
A|--------2-----2-----2--------------------2-----2--2---2-------------------------------|
E|--------3-----2-----0--------------------3-----2--2---0-------------------------------|

e|-------------------------------------------------------------------3----------|
B|--------7-------------------7----------------------------2------   3 -   -----|
G|------- 7--------7----------7--------7--------------4----2---------0----------|
D|--------5--------7----------5--------7--------------4----2---------0----------|
A|--------5--------5----------5--------5--------------2----0---------2----------|
E|-------------------------------------------------------------------3----------|
  i can't make an exception for a bad connection that only goes one way

e|---2------------3---------2----------3------2-----------------2----------------------|
B|---3------------3---------3----------3------3--------2--------3-----2----------------|
G|---2------------0---------2----------0------2--------2--------2-----2----------------|
D|---0------------0---------0----------0------0--------2--------0-----2----------------|
A|----------------2--------------------2---------------0--------------0----------------|
E|----------------3--------------------3-----------------------------------------------|
  sell out for a song where i don't belong with you on division day
e|---------------------------------------------------------------------------------|
B|---------------------------------------------------------------------------------|
G|---------------------------------------------------------------------------------|
D|-----------12--------------------5-------9---------------------------------------|
A|-----------12--------------------5-------9---------------------------------------|
E|-----------10--------------------3-------7---------------------------------------|
          the moon stood up on the ridge,  looking down where the water
e|-----------------------------------------------------------------------------------|
B|-----------------------------------------------------------------------------------|
G|-1---------------------------------------------------------1-----------------------|
D|-0-----------12-------------5-------------9----------------0-----------------------|
A|-2-----------12-------------5-------------9----------------2-----------------------|
E|-0-----------10-------------3-------------7----------------------------------------|
  shines, and a man looking over the bridge, like he done so many times.

e|-------------------------------------------------------------3----------------------|
B|-7-------------------7------------------------------2--------3----------------------|
G|-7-----7-------------7--------7----------4----------2--------0----------------------|
D|-5-----7-------------5--------7----------4----------2--------0----------------------|
A|-5-----5-------------5--------5----------2----------0--------2----------------------|
E|-------------------------------------------------------------3----------------------|
Thinking about ,      how to stay out,   out of troubles  way
e|---2------------3---------2----------3------2----------------------------------------|
B|---3------------3---------3----------3------3--------2-------------------------------|
G|---2------------0---------2----------0------2--------2--------4---1------------------|
D|---0------------0---------0----------0------0--------2--------4---2------------------|
A|----------------2--------------------2---------------0--------2---2------------------|
E|----------------3--------------------3------------------------2---0------------------|
 Flying to fall,           away from you all, its over divison dayayay

e|---3----------------2-----------------------------------------------------------|
B|---3---------2------3-----------------------------------------------------------|
G|---0---------2------2-----------------------------------------------------------|
D|---0---------2------0-----------------------------------------------------------|
A|---2---------0------------------------------------------------------------------|
E|---3----------------------------------------------------------------------------|
 Beautiful  Divison   day.
Suggest correction new What's this?
You can suggest a correction to this tab. Community and Mods will review your correction and vote to approve or reject it.
comments
We did not receive enough feedback on this tab! Please rate:
print report bad tab
1 2 3 4 5
guest
You may want to rate the tab now too:
select rating
Please do not post tabs as comments. Select "correction" instead!