Oops, an error
Loading. Please wait.

Everything Reminds Me Of Her Tab

version 2
version 2

Whole song

Interactive

47,779 views 84 this week
3 commentsread comments
1 2 3 4 5
excellent!
x 24
add to favorites
launch autoscroll
font size
0
reset
how to read this tab
guitar tuner
Autoscroll
slow
fast
+/-
esc
set tempo
stop
Help us to improve Ultimate-Guitar.com Take our survey!
×
Author
-----------------------------------------------------------------------------------------
                      Everything Reminds Me of Her - Elliott Smith
-----------------------------------------------------------------------------------------

Tuning: 1 Step Down (DGCFAd)


[Intro]

d|-----------------------|-0---------------|-0-------------------|----------------------|
A|--3b4r3---1---1------1—|-1--(Strum)------|-1----3/4/5-5--5\4\3-|----1---1-------------|
F|------------2---0-2----|-2---------------|-2-------------------|----0---0-------------|
C|-----------------------|-3---------------|-3----3/4/5-5--5\4\3-|----2---2-------------|
G|-----------------------|-----------------|---------------------|----3---3-------------|
D|-----------------------|-----------------|---------------------|----3-3-3---0-0-1-2-3-|
                           F                                           C/G
 |------(Fill 1)---------|                 |------(Fill 2)-------|


d|--------------------------|-0---0------|-1--------------|----------------|-0----------|
A|-1----3b4r3---1---1-----1—|-1---1------|-3--------------|------1-------0-|-1-(Verse 1-|
F|-0--------------2---0-2---|-2---2------|-2--------------|------2---------|-2--begins)-|
C|-2------------------------|-3---3--3-2-|-0-0-2--1--0----|---2--2----0--0-|-3----------|
G|-3------------------------|------------|--------------3-|-0-------2----2-|------------|
D|-3------------------------|------------|----------------|----------------|------------|
  C/G                         F           Dm                     Am      G   F

------->     d|-------------------------| <----- Strum the chords in
Not part of  A|---1---------1---1---1---|        Fill 3b very lightly.
intro...     F|---0---------0---0---0---|
             C|---2---------2---2---0---|
             G|---3----2-3--3-3-3-2-2-0-|
             D|-----3-------------------|
                  C
              |--(Fill 3a)-|-(Fill 3b)--|
              |--------(Fill 3)---------|


[Verse 1]

F                                           C  (Fill 3)
I never really had a problem, because of leaving.
     Am            G          F        C  (Fill 3a)  (Fill 1)
But everything reminds me of her, this evening.
F                                C     A   A7/9  A7  (Fill 4)
So if I seem a little out of it, sorry.
    F            Dm    Am            G           F    D
But why should I lie ? Everything reminds me of her.


[Interlude]

d|-0----------------------|---------------------|-----------------|-5----------7----5---|
A|-1----------------------|-1----3/4/5-5--5\4\3-|-1---1-----------|-5----------5----5---|
F|-2--------2-0-----------|-0-------------------|-0---0-----------|-6----------6----6---|
C|-3------------3-2-0-----|-2----3/4/5-5--5\4\3-|-2---2-----------|-7----------5----5---|
G|--------------------3-3-|-3-------------------|-3---3-----3-2-0-|-7----------7----7---|
D|------------------------|---------------------|-3-3-3---3-------|-5----------5----5---|
   F                                               C/G             /A         A7/9  A7
                          |-------(Fill 2)------|                 |------(Fill 4)-------|


[Verse 2]

     F                                                              C  (Fill 3)
The spin of the earth, impaled a silhouette, of the sun, on the steeple.
             Am            G             F                  C  (Fill 3)  (Fill 1)
And I gotta hear the same sermon all the time now, from you people.
F                                      C       A
Why are you staring into outer space, crying?
        A7/9  A7 (Fill 4) F           Dm      Am            G          F
Just because you came across, it and lost it, everything reminds me of her
Am            G          F    Am            G          F
Everything reminds me of her, everything reminds me of her.


[Interlude]


[Outro]
 
d|-0-------------------|---1---------------------|----0------------|
A|-1-------------------|---3---------------------|----1------------|
F|-2---------2-0-------|---2-----2--0------------|----2------------|
C|-3-------------3-2-0-|---0-----------3-2-0-----|----2------------|
G|---------------------|---------------------3-2-|-0--0------------|
D|---------------------|-------------------------|-----------------|
   F                      Dm                         Am


******************************************************

| /  slide up
| \  slide down
| h  hammer-on
| p  pull-off
| ~  vibrato
| +  harmonic
| x  Mute note

******************************************************
Suggest correction
What's this?
You can suggest a correction to this tab. Community and Mods will review your correction and vote to approve or reject it.
comments
print report bad tab
3 comments total.
0 reply
klemons12 91 wrote on October 16 2009, 06:15 pm

This is great!

0 reply
RowleyRowley 16 wrote on July 3 2010, 03:53 am

Hey mate, thanks for the effort you've put in. Sounds pretty good and well organised with all the fill namings.

0 reply
tallicafan888 704 wrote on April 13 2014, 02:39 pm

This line here on the 2nd verse;

Am G F Am G F
Everything reminds me of her, everything reminds me of her.

Should be this

Am G D F G F
Everything reminds me of her, everything reminds me of her.

Apart from that, good job!

guest
You may want to rate the tab now too:
select rating
Please do not post tabs as comments. Select "correction" instead!