Oops, an error
Loading. Please wait.

Good To Go Tab

8,911 views 12 this week
no commentswrite comment
1 2 3 4 5
excellent!
x 3
add to favorites
launch autoscroll
font size
0
reset
how to read this tab
guitar tuner
Autoscroll
slow
fast
+/-
esc
set tempo
stop
Help us to improve Ultimate-Guitar.com Take our survey!
×
Author
Tabbed by:CMM
Email:colin_michael_muppet@hotmail.com

Tuning: One Whole Step Down

(Intro)
d|---------0--------------0--------------0----------|
A|-------1---1----------1---1----------1---1--------|
F|-----2-------2------2-------2------2-------2------|
C|---2--------------2--------------2----------------|
G|-0--------------0--------------0-------------0----|
D|--------------------------------------------------|

(Verse One)
d|---------0--------------0--------------0--------------0---------|
A|-------1---1----------1---1----------0---0----------0---0-------|
F|-----2-------2------2-------2------0-------0------0-------0-----|
C|---2--------------2--------------2--------------2---------------|
G|-0--------------0-----------------------------------------------|
D|-------------------------------0--------------0-----------------|

d|---------0--------------0--------------3-------------3----------|
A|-------1---1----------1---1----------3---3---------3---3--------|
F|-----2-------2------2-------2------0-------0-----0-------0------|
C|---2--------------2--------------0-------------0----------------|
G|-0--------------0-----------------------------------------------|
D|-------------------------------3-------------3------------------|

(Pre Chorus)
d|---------0-------------0-------------1-------------1---------|
A|-------1---1---------1---1---------1---1---------1---1-------|
F|-----0-------0-----0-------0-----2-------2-----2-------2-----|
C|---2-------------2-------------3-------------3---------------|
G|-3-------------3-------------3-------------3-----------------|
D|-------------------------------------------------------------|

d|---------0-------------0--------------------------------------|
A|-------1---1---------1---1-----------------0--------------0---|
F|-----0-------0-----0-------0------------1-----1---------------|
C|---2-------------2-------------------2-----------------2------|
G|-3-------------3------------------2-----------------2---------|
D|-------------------------------0-----------------0------------|

(Chorus Chord Progression and small pick ups)
d|-0--0--0---------------------1--0-----0-------------------0---|
A|-1--2--1----------3----------1--1--3--1---------3---------1---|
F|-2--2--0----------0----------2--0--0--0---------0---------0---|
C|-2--2--2----------0----------3--2--0--2---------0---------2---|
G|-0--0--3--3-2-----2-----2-3--3--3--2--3--3-2----2----2-3--3---|
D|---------------3--3--3-------------3---------3--3--3----------|

(Verse Two Chord Progression)
d|-0--0--0--3--|
A|-1--0--1--3--|
F|-2--0--2--0--|
C|-2--2--2--0--|
G|-0--2--0--2--|
D|----0-----3--|

(Little Melody Solo)
d|-5-5-7-5------------------5-5-7-5---5-------------------------------|
A|---------5-----8-5----(8)---------8---8----6-5----------------------|
F|-----------------------------------------------5------5--5-7--7-5---|
C|--------------------------------------------------------------------|
G|--------------------------------------------------------------------|
D|--------------------------------------------------------------------|

d|-----------------------------|
A|-----------------------------|
F|--5--5-7--7-5---5--5-7--7-5--|
C|-----------------------------|
G|-----------------------------|
D|-----------------------------|
Suggest correction
Give kudos to tab author, rate the tab!
1 2 3 4 5
comments
print report bad tab
guest
You may want to rate the tab now too:
select rating
Wanna post a correction for this tab? Suggest correction