Oops, an error
Loading. Please wait.

Half Right Tab

version 1
version 1

Whole song

Interactive

27,183 views 21 this week
no commentswrite comment
1 2 3 4 5
accurate
x 3
add to favorites
launch autoscroll
font size
0
reset
how to read this tab
guitar tuner
Tab Pro tools
  • play this tab
  • loop segment
  • change instrument
  • show fretboard
  • metronome
×
Best way to learn
"Half Right"
Autoscroll
slow
fast
+/-
esc
set tempo
stop
Contributor
Band: Elliott Smith
Song: Half Right
Album: New Moon

tabbed by jam9383@yahoo.com

tuned full step down DGCFAd

Intro-

d-----------------------------------------------------------------|
A----3---3---3---3-----3-----3-----3----3-----3-----3-------------|
F--4---4---4---4----------4-----------4----------4----------------|
C-------------------2-----------2----------2----------------------|
G-----------------------------------------------------------------|
D-----------------------------------------------------------------|

d-----------------------------------------------------------------|
A----3----3-----3-----3---3---3---3---3---3-----3---3-----3-------|
F------6-----------6--------6-------5--------5---------5----------|
C-----------------------------------------------------------------|
G--0---------0----------0-------3-------3---------3---------------|
D-----------------------------------------------------------------|

Verse-

d-----------------------------------------------------------------|
A-----8----8---8---8---8------3---3---3---3---3---3---------------|
F-----------------------------------------------------------------|
C-------5--------5-------5------2-------2-------2-----------------|
G--7---------7-------7------0-------0-------0---------------------|
D-----------------------------------------------------------------|

d-----------------------------------------------------------------|
A----8----8---8---8---8-------3---3----3---3---3---3--------------|
F-------------------------------0--------0-------0----------------|
C------7--------7-------7-----------------------------------------|
G--0--------0-------0-------3-------3--------3--------------------|
D-----------------------------------------------------------------|


Bridge

d-----------------------------------------------------------------|
A--------------------------------------2-2-2-2--------------------|
F--0-0-0-0-0---0-0-0-0-0-0---2-2-2-2-2-2-2-2-2--------------------|
C--2-2-2-2-2---2-2-2-2-2-2---2-2-2-2-2-2-2-2-2--------------------|
G--3-3-3-3-3---2-2-2-2-2-2---0-0-0-0-0-0-0-0-0--------------------|
D-----------------------------------------------------------------|


comments/corrections e-mail, please rate...
comments
We did not receive enough feedback on this tab! Please rate:
print report bad tab
1 2 3 4 5
I want to post or [tab]
guest
You may want to rate the tab now too:
select rating
Please do not post tabs as comments. Select "correction" instead!