Oops, an error
Loading. Please wait.

Half Right Tab

version 2
version 2

Whole song

Interactive

17,360 views 87 this week
4 commentsread comments
1 2 3 4 5
excellent!
x 4
add to favorites
launch autoscroll
font size
0
reset
how to read this tab
guitar tuner
Tab Pro tools
  • play this tab
  • loop segment
  • change instrument
  • show fretboard
  • metronome
Autoscroll
slow
fast
+/-
esc
set tempo
stop
Difficulty
novice
  I tried to find this tab, and none of them were done right.  E-mail me if you think I 
something wrong.  Micahschreiners@yahoo.com
It sounds pretty acurate with normal tuning, when listening to the New Moon CD.  Have fun.

e[-----------------------------------------------------------------------------]
b[----1---1---1---1---1---1---1---1---1---1---1---1---1---1---1---1---1---1----]
c[--2---2---2---2---2---2-------2-------2-------2-------2-------4-------4------]
d[--------------------------0-------0-------0-------0--------------------------]
a[-----------------------------------------------------------------------------]
E[----------------------------------------------------------3-------3-------3--]


e[-----------------------------------------------------------------------------]
b[--1---1---1---1---1---1---1---1---1---1---1---1---6---6---6---6---6---6------]
c[----4-------4-------3-------3-------3-------3--------------------------------]
d[----------------------------------------------------3-------3-------3--------]
a[----------------1-------1-------1-------1-------3-------3-------3-------3----]
E[--------3--------------------------------------------------------------------]


e[------------------------------------------1---1---1---1---1---1---1---1------]
b[--6---6---6---6---6---6---6---6---6---6-----0-------0-------0-------0--------]
c[-----------------------------------------------------------------------------]
d[----3-------3-------3-------3-------3----------------------------------------]
a[--------5-------5-------5-------5--------------------------------------------]
E[----------------------------------------3-------3-------3-------3------------]

  \x16/   \x16/   \x16/   \x16/   \x5 /
e[-/-1-\---/-X-\---/-X-\---/-1-\---/-1-\-------/-X-\------]
b[-/-1-\---/-6-\---/-6-\---/-0-\---/-3-\---5---/-6-\---8--]
c[-/-3-\---/-5-\---/-5-\---/-0-\---/-3-\---3---/-7-\---7--]
d[-/-3-\---/-3-\---/-3-\---/-0-\---/-3-\---3---/-7-\---7--]
a[-/-1-\---/-3-\---/-5-\---/-2-\---/-1-\---1---/-5-\---5--]
E[-/-X-\---/-X-\---/-X-\---/-3-\---/-X-\-------/-X-\------]
comments
print report bad tab
4 comments total. Showing first comments.
0 reply
U-Mass wrote on June 1 2007, 04:19 pm

Thank you. It sounds perfect.

+1 reply
RockGuitar92 wrote on December 12 2009, 12:37 am

It isn't standard tuning if it is EADCBE unless you have a big typo throughout the whole song.

+2 reply
CherryTerry wrote on December 20 2012, 06:16 am

It sounds great. I saw many other tabs, they were only half right!! :)

I want to post or [tab]
guest
You may want to rate the tab now too:
select rating
Please do not post tabs as comments. Select "correction" instead!