Oops, an error
Loading. Please wait.

In The Lost And Found bass

version 1
version 1

Whole song

Interactive

678 views 1 this week
no commentswrite comment
1 2 3 4 5
2 more votes to show rating
add to favorites
×
Save as Personal and add changes to this tab that will be seen only by you. Learn more ›
×
You can save this tab as Personal to edit and correct it or add notes. All changes will be seen only by you. Learn more »
launch autoscroll
font size
0
reset
guitar tuner
edit
Autoscroll
slow
fast
+/-
esc
set tempo
stop
Author
Difficulty
intermediate
-------------------------------------------------------------------------------
                             IN THE LOST AND FOUND - Elliott Smith
-------------------------------------------------------------------------------

Tabbed By : Xavier Borderie
e-mail: xavier@borderie.net

Tuning: Standard

Bridge section's strings adapted to bass from this video:
http://www.youtube.com/watch?v=T2uSqOQ8HUk



He held his breath to hold your hand
To walk the stair steps in pairs
Climbing up a slippery slope
I'm in love, love I hope

Don't  go     home Angelina
Stay with me, hanging around in the lost and found

G|-------------------------------------------6-5---------6-5-----3-|
D|-----------------------------0-3-1-------6-----------6-----------|
A|--5555-5---5-4-3-3-5-6-6-6-1-----------4-----------4-------------|
E|-----------------------------------------------------------------|


He kissed you quick, feeling weird
Lonely leered, and disappeared
This is such a simple place
The passing time can't erase

G|--------------------------------------------------|
D|----0-3-1-0-----3-5-----5---0-3-1-5-7-8-3-5-----5-|
A|--1---------3-5-----3-6---1-----------------3-6---|
E|--------------------------------------------------|


Don't go home Angelina
Paint tomorrow blue

G|-------3----------3----|
D|------------3----------|
A|--1----------1---------|
E|-----------------------|

G|-------------------------------------------------|
D|-------------------------------------------------|
A|--5555-5---5-4-3-3-5-6-6-6-5----5----3----3----1-|
E|-------------------------------------------------|


(break, strings+piano, no bass normally, tabbed some from video)
G|------------------------------------------------|
D|------8---8---8---8---8---8---8-----------------|
A|--1---------------------------------------------|
E|----------------------------------2---2---1---1-|
(choose whichever position for a B note, then F# F at the end)


Day breaks
But every morning when he wakes he thinks of you

G|------------------------------------------------|
D|------------------------------------------------|
A|------------------------------1-3-4---4-3---3-1-|
E|--1-2-3-4---4---3---3---2---2-------------------|

G|----------------------------------|
D|----------------------------------|
A|--1--------/6---1----------/6-----|
E|----2---1-----------2---1-------6-|


(reprise)
G|--10h12-------------------------|
D|--------8----10h12-8----10h12-8-|
A|--------------------------------|
E|--------------------------------|


I'm alone, but that's okay
I don't mind most of the time

I don't feel afraid to die
She was here, passing by

G|--------------------------------------------------|
D|----0-3-1-0-----3-5-----5---0-3-1-5-7-8-3-5-----5-|
A|--1---------3-5-----3-6---1-----------------3-6---|
E|--------------------------------------------------|


Don't go home Angelina
Stay with me, hanging around in the lost and found
Stay with me, hanging around in the lost and found

G|-------3----------3----|
D|------------3----------|
A|--1----------1---------|
E|-----------------------|

G|-------------------------------------------6-5---------6-5-----|
D|-----------------------------0-3-1-------6-----------6---------|
A|--5555-5---5-4-3-3-5-6-6-6-1---------4-4---------3-4-----------|
E|---------------------------------------------------------------|

G|--------------------6-5---------6-5----3-|
D|--8-8-8-----------6-----------6----------|
A|--------8-6-4-3-4---------3-4------------|
E|-----------------------------------------|

| /  slide up
| \  slide down
| h  hammer-on
| p  pull-off
| ~  vibrato
| +  harmonic
| x  Mute note
===============================================================================

            
            
Suggest correction
Creating personal tab
Creating personal tab
You can edit any tab online and save it as your Personal.

You can edit, replace or remove any tab part or add personal notes – all changes will be seen only by you.

Personal tabs can be accessed anytime from any device, even offline.
Learn more »
Give kudos to tab author, rate the tab!
1 2 3 4 5
comments
print report bad tab
guest
You may want to rate the tab now too:
select rating
Wanna post a correction for this tab? Suggest correction