Oops, an error
Loading. Please wait.

Punch And Judy Other Version tab

262 views 3 this week
no commentswrite comment
1 2 3 4 5
3 more votes to show rating
add to favorites
×
Save as Personal and add changes to this tab that will be seen only by you. Learn more ›
×
You can save this tab as Personal to edit and correct it or add notes. All changes will be seen only by you. Learn more »
launch autoscroll
font size
0
reset
how to read this tab
guitar tuner
edit
Autoscroll
slow
fast
+/-
esc
set tempo
stop
Author
Standard Tuning


[Intro]

Guitar1                                               
e|----------------------------------------------------|
B|-----3--5p3----3---5p3----3------3----0---1--1------|
G|---2---------2-----------2-----2------2---3--2------|
D|-0----0-----0----0------0-------------2---3--3------|
A|-----------------------------3-----0------1--3------|
E|---------------------------------------------1------|

Guitar1 on second time only                          
e|----------------------------------------------------|
B|------------------------3----3----1------1--1-------|
G|-------------------------2---0-----------3--2-------|
D|--------------------------0--2--2--------3--3-------|
A|-----------------------------3-----------1--3-------|
E|--------------------------------------------1-------|


[Verse]

Guitar1
e|----------------------------------------------------|
B|-----3---------3----------3------3----0---1--1------|
G|---2---------2-----------2-----2------2---3--2------|
D|-0----------0-----------0-------------2---3--3------|
A|-----------------------------3-----0------1--3------|
E|---------------------------------------------1------|


[Chorus]

F#5                     C#5
in the alley, mixing blood cheek to cheek
A#5                     G#5                 F#5      G#5   B5
you're up against the words you never could dare to speak
F#5                 C#5
it's your conflict shored up tight
A#5             G#              F#              
your heavy steps that follow her steps so light



************************************

| p  Pull-off

************************************

            
            
Suggest correction
Creating personal tab
Creating personal tab
You can edit any tab online and save it as your Personal.

You can edit, replace or remove any tab part or add personal notes – all changes will be seen only by you.

Personal tabs can be accessed anytime from any device, even offline.
Learn more »
Give kudos to tab author, rate the tab!
1 2 3 4 5
comments
print report bad tab
guest
You may want to rate the tab now too:
select rating
Wanna post a correction for this tab? Suggest correction