Oops, an error
Loading. Please wait.

See You Later Tab

13,573 views 24 this week
no commentswrite comment
1 2 3 4 5
accurate
x 7
add to favorites
launch autoscroll
font size
0
reset
how to read this tab
guitar tuner
Autoscroll
slow
fast
+/-
esc
set tempo
stop
Help us to improve Ultimate-Guitar.com Take our survey!
×
Contributor
See You Later
by Elliott Smith 
tabbed by Ian
Tuning Open C, like on Independence Day and Ballad Of Big Nothing
CGCEGC
Intro:
C|-/9-9-9-9-9---7---7-7-7-7---7----7-------7-------|
G|-/9-9-9-9-9---7---7-7-7-7---7----7-------7-------|
E|-/9-9-9-9-9---7h8-8-8-8-8---7----7h8r7h8r7-------|
C|-/9-9-9-9-9---7---7-7-7-7---7----7-------7--etc--|
G|--------------7h9-9-9-9-9---7----7h9r7h9r7-------|
C|--------------7---7-7-7-7---7----7-------7-------|
 
Verse:
I'm not writing out the strumming pattern, you can get it from the record
   G                    C/G         G         A        C               G
C|-7--------------------7-----------7---------9-------12---------------7---|
G|-7--------------------7-----------7---------9-------12---------------7---|
E|-7--------------------8-----------7---------9-------12---------------7---|
C|-7--------------------7-----------7---------9-------12---------------7---|
G|-7--------------------9-----------7---------9-------12---------------7---|
C|-7--------------------7-----------7---------9-------12---------------7---|
    I gotta choke chain   Made on a night tra-ain  To keep your memory down

    /F# Em      D               A/C#     C         A                     B  C
C|---------4--------2---------------1---0-0-0-----9---------------------11-12-|
G|---------4--------2---------------2---0-0-0-----9---------------------11-12-|
E|---------3--------2---------------0---0-0-0-----9---------------------11-12-|
C|---------4--------2---------------1---4-4-4-----9---------------------11-12-|
G|------------------2-------------------5-5-5-----9---------------------11-12-|
C|-7-6-4-4-4----2-2-2-----------1-1-1---0-0-0-----9---------------------11-12-|
         In quicksand   from the main    man         To drown everything oooout
Repeat intro
G                  
Fool around on the joy ride
C/G            G    A
Fucked up from insiiiide
C           G          /F#
Always at a dead stall
Em            D         A/C#      C
From sticking pins into miniature men
  C           G/B        A            A B
C|-0--------------------9----9-------9-11-|
G|-0----------4---------9----9-------9-11-|
E|-0----------3---------9----9h10r9--9-11-|
C|-4----------2---------9----9-------9-11-|
G|-5----------4---------9----9h11r9--9-11-|
C|-0--------------------9----9-------9-11-|
    Who can't feel it at all
Chorus:
   C               D              D
C|-0---------------2--------------7---------------------|
G|-0---------------2--------------7------7----------4---|
E|-0---------------2--------------7------5----------3---|
C|-0---------------2--------------7------6----------4---|
G|-0---------------2--------------7---------------------|
C|-0---------------2--------------7------6----------4---|
     See you later, see you later   if I see you at all
   A              A B  C
C|-9--------------9-11-12-|
G|-9--------------9-11-12-|
E|-9--------------9-11-12-|
C|-9--------------9-11-12-|
G|-9--------------9-11-12-|
C|-9--------------9-11-12-|
    See you later

 Intro Variation:
C|-/9-9-9-9-9---7---7-7-7-7---7----7-------7-------|
G|-/9-9-9-9-9---7---7-7-7-7---7----7-------7-------|
E|-/8-8-8-8-8---7h8-8-8-8-8---7----7h8r7h8r7-------|
C|-/9-9-9-9-9---7---7-7-7-7---7----7-------7--etc--|
G|--------------7h9-9-9-9-9---7----7h9r7h9r7-------|
C|--------------7---7-7-7-7---7----7-------7-------|

Guitar Solo:
   G    C/G        G  A          C  G /F# 
C|---------------------------------------|
G|-7-7-----------------------------------|
E|-----7h8--8p7-----7--------------------|
C|--------------9-----9-7-9-7------------|
G|----------------------------9----------|
C|---------------------------------------|

   Em D              A/C#     C   C G/B A B
C|------------------------------------------|
G|-16-16--14/12\14---14/16\14\12------------|
E|------------------------------------------|
C|------------------------------------------|
G|-16-16--14/12\14---14/16\14\12------------|
C|------------------------------------------|

Repeat Chorus:
Second Verse:
I walked through thick mud
Looking for new blood
Thinking I heard your name
Cruel imagination
Still giving me pain
Just to find you with your
Master..minder
Running your affairs
Seeing how he loves you now
Well let me show you how much I care
Chorus 2
   C               D              G     D/F#        E   A B      
C|-0---------------2--------------7-----------------4--(9-11)---|
G|-0---------------2--------------7------7----------4--(9-11)---|
E|-0---------------2--------------7------5----------4--(9-11)---|
C|-0---------------2--------------7------6----------4--(9-11)---|
G|-0---------------2--------------7-----------------4--(9-11)---|
C|-0---------------2--------------7------6----------4--(9-11)---|
     See you later, see you later   if I see you at all
See you later, see you later if I see you at all
See you later, see you later if I see you at all
Repeat a few times then play intro again.
And thats yr lot. Good luck 
xo Ian

comments
print report bad tab
I want to post or [tab]
guest
You may want to rate the tab now too:
select rating
Please do not post tabs as comments. Select "correction" instead!