Oops, an error
Loading. Please wait.

St Ides Heaven tab

version 1
version 1

Whole song

  • Everything but the instrumental section was tabbed... Show more

Interactive

37 views 1 this week
no commentswrite comment
1 2 3 4 5
3 more votes to show rating
add to favorites
×
Save as Personal and add changes to this tab that will be seen only by you. Learn more ›
×
You can save this tab as Personal to edit and correct it or add notes. All changes will be seen only by you. Learn more »
launch autoscroll
font size
0
reset
how to read this tab
guitar tuner
edit
Autoscroll
slow
fast
+/-
esc
set tempo
stop
St. Ides Heaven - Elliott Smith

Intro originally tabbed by PeteGyoin (UltimateGuitar.com)
Verse, Chorus, and 2nd Guitar licks tabbed by Loren

Notes:

During the intro, I think you can let the open B string ring along with the G (it's pretty hard to stop
it anyway).

Key: (/) Slide Up

Tuning: D standard

Chord Shapes:
C: x32xxx
Em6: x42xxx
G/C: 332xxx
G: 320xxx
E5: 022xxx
F#5:244xxx

[Intro](Guit. 1)
D|----------------------------------------------------------------------------------------------|
A|---------------------------------------------------------------2-2-2-2-2-2-2-2-2-2-2-2-2-2-2--|
F|---0-0-0-0-0-0-0-0-0-0---0-0-0-0-0-0-0-0---0-0-0-0-0-0-0-0-0---0-0-0-0-0-0-0-0-0-0-0-0-0-0-0--|
C|---5-5-5-5-5-5-5-5-5-5---4-4-4-4-4-4-4-4---2-2-2-2-2-2-2-2-2---2-2-2-2-2-2-2-2-2-2-2-2-2-2-2--|
G|---7-7-7-7-7-7-7-7-7-7---5-5-5-5-5-5-5-5---3-3-3-3-3-3-3-3-3---0-0-0-0-0-0-0-0-0-0-0-0-0-0-0--|
D|----------------------------------------------------------------------------------------------|

[Intro](Guit. 2)
D|--------------------|
A|--2--3--2--0--------|
F|--------------2--2--|
C|--------------------|
G|--------------------|
D|--------------------|

[Verse](Guit. 1)
D|--------------------------------------------------------------------------------------------------------|
A|--------------------------------------------------------------------------------------------------------|
F|--------------------------------------------------------------------------------------------------------|
C|--2--2--2--2--2-----2--2-----------------2--2--2--2--2-----2--2--------------2--2--2--4--4--4-----0--0--|
G|--3--3--4--4--4-----3--3--0--2--2--2-----3--3--4--4--4-----3--3--0--2--2--2--2--2--2--4--4--4-----2--2--|
D|-----------------3-----------3--3--3--3-----------------3-----------3--3--3--0--0--0--2--2--2--0--3--3--|

D|---------------------------------------------------------|
A|---------------------------------------------------------|
F|---------------------------------------------------------|
C|-----2--2-----2--2-----2--2-----2----2--2--2--2--2--2--2-|
G|-----3--3-----3--3-----4--4-----3----3--3--3--3--3--3--3-|
D|--0--------3--------3--------3---------------------------|

[Pre Chorus Lick](Guit. 2)
D|--0--0--0--0---|
A|--1--3--0-/5---|
F|---------------|
C|---------------|
G|---------------|
D|---------------|

[Chorus]
D|----------------7------10----|
A|--0------0------0------0-----|
F|--0-x8---0-x8---0-x8---0-x8--|
C|--2------4------5------9-----|
G|--3------5------7------10----|
D|-----------------------------|

[Instrumental Break](Based roughly on the Stinkweeds, Pheonix, AZ (1996) performance:
Note: I think you should make the instrumental section your own, and Elliott didn't play 
it live quite like
he did on the recording anyway. What I tabbed below is a rough approximation of what he 
plays during the above
concert. From what I can tell, everything else is the same as the verse except for the 
last two chords, which
are probably x42x2x to x3201x or something similar.
D|----------------------------------------------------------------------------------------|
A|----------------------------------------------------------------------------------------|
F|----------------------------------------------------------------------------------------|
C|--2--2-----2--2--2-----2--2-----0--0--0-------2--2-----2--2--2-----2--2-----0--0--0-----|
G|--3--3--0--4--4--4--0--3--3--0--2--2--2--0----3--3--0--4--4--4--0--3--3--0--2--2--2--0--|
D|--------------------------------3--3--3-------------------------------------3--3--3-----|

************************************

| /  Slide up
| x  Dead note

************************************

            
            
Suggest correction
Creating personal tab
Creating personal tab
You can edit any tab online and save it as your Personal.

You can edit, replace or remove any tab part or add personal notes – all changes will be seen only by you.

Personal tabs can be accessed anytime from any device, even offline.
Learn more »
Give kudos to tab author, rate the tab!
1 2 3 4 5
comments
print report bad tab
guest
You may want to rate the tab now too:
select rating
Wanna post a correction for this tab? Suggest correction