Oops, an error
Loading. Please wait.

Stupidity Tries bass

1,149 views 3 this week
no commentswrite comment
1 2 3 4 5
1 last vote to show rating
add to favorites
×
Save as Personal and add changes to this tab that will be seen only by you. Learn more ›
×
You can save this tab as Personal to edit and correct it or add notes. All changes will be seen only by you. Learn more »
launch autoscroll
font size
0
reset
guitar tuner
edit
Autoscroll
slow
fast
+/-
esc
set tempo
stop
Author
        Verse:
G|-------------------------------2-------------------------------------------|
D|-----------------------------2---2-----------------------------------------|
A|--------4-4-7-7----------0-0-------0--3---333-2-0/-7-7-7h9p7--7------7h9p7-|
E|----------------7-7-6-6-----------------------------------------7-0--------|

G|-----------------------------------------------2------|--------------------|
D|---------------------------------------------2---2----|--------------------|
A|-0-00-0-2-0-3--3-3h5p3---4-4-7-7---------0-0-------0-3|-22223-4-4-3-3------|
E|---------------------------------7-7-6-6--------------|---------------3-3--|
                                                         [start chorus]

G|----------------------------------------------4-5-5-4-------44444444--|----|
D|----------------------------------------4-4-7---------7-5-5-----------|----|
A|--2-2-3-3-2-0-3-3--2-22-22-2223-4-4-7-7-------------------------------|----|
E|----------------------------------------------------------------------|----|
                                                            [End Chorus]
2nd verse is slightly different           [repeat verse part into..]
G|---------------------------------------------------------------------------|
D|------------------------------------------------------------0-1-2----------|
A|--------7-------7-7/-0---0-2-0-3-3h5p3-------------------------------------|
E|---0-0-----0-0-------------------------------------------------------------|
                                        For the bridge, just keep hitting your d strings
over and over until it goes into chorus, repeat same chorus tab as before, repeat first
tab in final verse, and then basically keep hitting your E and throwing in some E maj 
licks throughout the whole ending

            
            
Suggest correction
Creating personal tab
Creating personal tab
You can edit any tab online and save it as your Personal.

You can edit, replace or remove any tab part or add personal notes – all changes will be seen only by you.

Personal tabs can be accessed anytime from any device, even offline.
Learn more »
Give kudos to tab author, rate the tab!
1 2 3 4 5
comments
print report bad tab
guest
You may want to rate the tab now too:
select rating
Wanna post a correction for this tab? Suggest correction