Oops, an error
Loading. Please wait.

Tomorrow Tomorrow Tab

version 2
version 2

Whole song

  • This is the first complete tab of this song in the original tuning.

Interactive

61 views 3 this week
no commentswrite comment
1 2 3 4 5
3 more votes to show rating
add to favorites
launch autoscroll
font size
0
reset
how to read this tab
guitar tuner
Autoscroll
slow
fast
+/-
esc
set tempo
stop
Help us to improve Ultimate-Guitar.com Take our survey!
×
Author
Difficulty
Tuning
intermediate
D G C F A D
About this tab version
This is the first complete tab of this song in the original tuning. Was this info helpful? Yes No
Elliott Smith
Tomorrow Tomorrow
XO - 1998

Tuning - DGCFAD 12-String

[INTRO]

Finger Pick the Whole Song
   
    T m i T m i T m i T m i   T m i T m i T m i T m i
D|----0-0---0-0---2-2---5-5-|---5-5---5-5---2-2---0-0--|
A|--------3-----------3-----|-------3-----------3------|
F|--4-----------4-----------|-4-----------4------------|
C|--------------------------|--------------------------|
G|--------------------------|--------------------------|
D|--------------------------|--------------------------|

D|----0-0---0-0---2-2---5-5-|---5-5---5-5---2-2---3-3--|
A|--------2-----------2-----|-------3-----------2------|
F|--2-----------2-----------|-2-----------2------------|
C|--------------------------|--------------------------|
G|--------------------------|--------------------------|
D|--------------------------|--------------------------|

D|----3-3---3-3---3-3---3-3-|---3-3---2-2---0-0---0-0--|
A|--------1-----------1-----|-------1-----------1------|
F|--0-----------0-----------|-0-----------0------------|
C|--------------------------|--------------------------|
G|--------------------------|--------------------------|
D|--------------------------|--------------------------|

D|----2-2---2-2---2-2---2-2-|---0-0---0-0---0-0---0-0--|
A|--------0-----------0-----|-------0-----------0------|
F|--1-----------1-----------|-1------------1-----------|
C|--------------------------|--------------------------|
G|--------------------------|--------------------------|
D|--------------------------|--------------------------|

D|----0-0---0-0---2-2---5-5-|---5-5---5-5---7-7---5-5--|
A|--------3-----------3-----|-------3-----------3------|
F|--4-----------4-----------|-4-----------4------------|
C|--------------------------|--------------------------|
G|--------------------------|--------------------------|
D|--------------------------|--------------------------|

D|----5-5---5-5---5-5---5-5-|---5-5---5-5---4-4---3-3--|
A|--------2-----------2-----|-------2-----------2------|
F|--2-----------2-----------|-2-----------2------------|
C|--------------------------|--------------------------|
G|--------------------------|--------------------------|
D|--------------------------|--------------------------|

D|----3-3---3-3---3-3---3-3-|---3-3---2-2---0-0---0-0--|
A|--------1-----------1-----|-------1-----------1------|
F|--0-----------0-----------|-0-----------0------------|
C|--------------------------|--------------------------|
G|--------------------------|--------------------------|
D|--------------------------|--------------------------|

D|----2-2---2-2---2-2---2-2-|---0-0---0-0---0-0---0-0--|
A|--------0-----------0-----|-------0-----------0------|
F|--1-----------1-----------|-1------------1-----------|
C|--------------------------|--------------------------|
G|--------------------------|--------------------------|
D|--------------------------|--------------------------|

[VERSE]

D|----0-0---0-0---0-0---0-0-|---0-0---0-0---0-0---0-0--|
A|--------------------------|--------------------------|
F|--------4-----------4-----|-------------2-----2h4----|
C|--------------------------|-2h4---2h4----------------|
G|--2-----------2-----------|--------------------------|
D|--------------------------|--------------------------|

    Eve  -ry    bod  -y       knows

D|----0-0---0-0---0-0---0-0-|---0-0---0-0---0-0---0-0--|
A|--------------------------|--------------------------|
F|--------2-----------2-----|-------------------0------|
C|--------------------------|-------2h4---2h4----------|
G|--0-----------0-----------|-0------------------------|
D|--------------------------|--------------------------|

          which way   you     go

D|----0-0---0-0---0-0---0-0-|---0-0---0-0---0-0---0-0--|
A|--------------------------|--------------------------|
F|--------------------------|--------------------------|
C|--------2-----------2-----|-------2-----2/4---2------|
G|--------------------------|--------------------------|
D|--3-----------3-----------|-3------------------------|

                straight to   over

D|----0-0---0-0---0-0---0-0-|---0-0---0-0---0-0---0-0--|
A|--------------------------|--------------------------|
F|--------1-----2-----1-----|-------1------------------|
C|--------------------------|-2-----------0------------|
G|--------------------------|-------------------4------|
D|--0-----------------------|--------------------------|



D|----0-0---0-0---0-0---0-0-|---0-0---0-0---0-0---0-0--|
A|--------------------------|--------------------------|
F|--------4-----------4-----|-------------2-----2h4----|
C|--------------------------|-2h4---2h4----------------|
G|--2-----------2-----------|--------------------------|
D|--------------------------|--------------------------|

    No    one   wants to      see

D|----0-0---0-0---0-0---0-0-|---0-0---0-0---0-0---0-0--|
A|--------------------------|--------------------------|
F|--------2-----------2-----|-------------------0------|
C|--------------------------|-------2h4---2h4----------|
G|--0-----------0-----------|-0------------------------|
D|--------------------------|--------------------------|

          you   inside of     me

D|----0-0---0-0---0-0---0-0-|---0-0---0-0---0-0---0-0--|
A|--------------------------|--------------------------|
F|--------------------------|--------------------------|
C|--------2-----------2-----|-------2-----2/4---2------|
G|--------------------------|--------------------------|
D|--3-----------3-----------|-3------------------------|

                straight to   over

D|--------------------------|--------------------------|
A|----0-0---0-0---0-0---0-0-|---0-0---0-0---0-0---0-0--|
F|--------1-----2-----1-----|-------1------------------|
C|--------------------------|-2-----------2-----0------|
G|--------------------------|--------------------------|
D|--0-----------------------|--------------------------|

             

[CHORUS]

D|--------------------------|--------------------------|
A|----0-0---0-0---0-0---0-0-|---0-0---0-0---0-0---0-0--|
F|--------4-----------4h5---|-------5-----------4------|
C|--------------------------|--------------------------|
G|--5-----------5-----------|-5-----------5------------|
D|--------------------------|--------------------------|

             I  heard the     ham  -mer   at   the  

D|--------------------------|--------------------------|
A|----0-0---0-0---0-0---0-0-|---0-0---0-0---0-0---0-0--|
F|--------0-----------0h3---|-------3p0---------4------|
C|--------------------------|--------------------------|
G|--4-----------4-----------|-4-----------4------------|
D|--------------------------|--------------------------|

    lock

D|--------------------------|--------------------------|
A|----0-0---0-0---0-0---0-0-|---0-0---0-0---0-0---0-0--|
F|--------0-----------0h2---|-------2p0---------4------|
C|--------------------------|--------------------------|
G|--3-----------3-----------|-3-----------3------------|
D|--------------------------|--------------------------|

                Say   you're  deaf  and   dumb  and

D|--------------------------|--------------------------|
A|----0-0---0-0---0-0---0-0-|---0-0---0-0---0-0---0-0--|
F|--------1-----2-----1-----|-------1------------------|
C|--------------------------|-2-----------2-----0------|
G|--------------------------|--------------------------|
D|--0-----------------------|--------------------------|

    dull

D|--------------------------|--------------------------|
A|----0-0---0-0---0-0---0-0-|---0-0---0-0---0-0---0-0--|
F|--------4-----------4h5---|-------5-----------7------|
C|--------------------------|--------------------------|
G|--5-----------5-----------|-5-----------5------------|
D|--------------------------|--------------------------|

                Give  your    -self a    -no   -ther

D|--------------------------|--------------------------|
A|----0-0---0-0---0-0---0-0-|---0-0---0-0---0-0---0-0--|
F|--------0-----------0h3---|-------3p0---------4------|
C|--------------------------|--------------------------|
G|--4-----------4-----------|-4-----------4------------|
D|--------------------------|--------------------------|

    talk

D|--------------------------|--------------------------|
A|----0-0---0-0---0-0---0-0-|---0-0---0-0---0-0---0-0--|
F|--------0-----------0h2---|-------2p0---------4------|
C|--------------------------|--------------------------|
G|--3-----------3-----------|-3-----------3------------|
D|--------------------------|--------------------------|

                This  time    make  it    sound like

D|--------------------------|--------------------------|
A|----0-0---0-0---0-0---0-0-|---0-0---0-0---0---0------|
F|--------1-----2-----1-----|-------1-----------1------|
C|--------------------------|-2-----------2---2--------|
G|--------------------------|--------------------------|
D|--0-----------------------|--------------------------|

    someone                                     The



[VERSE II]

D|--------------------------|--------------------------|
A|--------0-----0-----0--0--|----0----0------0--0------|
F|--------2-----1-----1-----|-------1-----------1------|
C|--2-----------------------|-2-----------2------------|
G|--------------------------|--------------------------|
D|--------------------------|--------------------------|
 
    noise is    com  -ing     out               and

D|--------------------------|--------------------------|
A|--------0-----0-----0--0--|----0-----0-----0-----0---|
F|--------2-----1-----1-----|-------1------------------|
C|--2-----------------------|-2------------------------|
G|--------------------------|-------------0-----2------|
D|--------------------------|--------------------------|

    if    it's  not   out     now         then  to-

D|--------------------------|--------------------------|
A|-----------1-----1-----1--|--------------------------|
F|--------0--------0-----0--|----------0--------0------|
C|-----2-----------2-----2--|-------0-----------0------|
G|--3-----------------------|----2-----------2---------|
D|--------------0-----2-----|-3-----------3------------|
                      T

    morrow            to                        to

D|--------------------------|--------------------------|
A|-----------2--------2-----|-------------------0------|
F|--------2-----------2-----|-1-----------1-----1------|
C|-----2-----------2--------|-2-----------2------------|
G|--0-----------0-----------|-2-----------2------------|
D|--------------------------|-0-----------0------------|

    morrow                                      They

D|--------------------------|--------------------------|
A|--------0-----0-----0-----|-0-----0-----------0------|
F|--------2-----1-----------|-1-----1-----------1------|
C|--2-----------------2-----|----2--------2------------|
G|--------------------------|--------------------------|
D|--------------------------|--------------------------|

    took  your  life  a      -part              and

D|--------------------------|--------------------------|
A|--------0-----0-----0-----|----0-----0-----0-----0---|
F|--------2-----1-----1-----|-------1------------------|
C|--2-----------------------|-2------------------------|
G|--------------------------|-------------0-----2------|
D|--------------------------|--------------------------|

    called you  fail -ures    art         They  were

D|--------------------------|--------------------------|
A|-----------1-----1-----1--|--------------------------|
F|--------0--------0-----0--|----------0--------0------|
C|-----2-----------2-----2--|-------0-----------0------|
G|--3-----------------------|----2-----------2---------|
D|--------------0-----2-----|-3-----------3------------|
                      T

    wrong                     though            they

D|--------------------------|--------------------------|
A|-----------2--------2-----|-----------------0-----0--|
F|--------2-----------2-----|----------1---------------|
C|-----2-----------2--------|-------2------------------|
G|--0-----------0-----------|----2---------0-----2-----|
D|--------------------------|-0------------------------|

    won't                     know         'til  to-

D|--------------------------|--------------------------|
A|-----------1--------1-----|----------0--------0------|
F|--------0-----------0-----|-------2-----------2------|
C|-----2-----------2--------|----1-----------1---------|
G|--3-----------3-----------|-2-----------2------------|
D|--------------------------|--------------------------|

   morrow





[BRIDGE]

D|--------------------------|--------------------------|
A|--9-----5-----10----9-----|--5-----12----12----12----|
F|--x-----x-----x-----x-----|--x-----x-----x-----x-----|
C|--6-----2-----7-----6-----|--2-----9-----9-----9-----|
G|--------------------------|--------------------------|
D|-----0-----0-----0-----0--|-----0-----0-----0-----0--|


D|--------------------------|--------------------------|
A|--9-----5-----10----9-----|--3/5---3p0---------------|
F|--x-----x-----x-----x-----|-------------4/2p0--------|
C|--6-----2-----7-----6-----|--------------------2p0---|
G|--------------------------|--------------------------|
D|-----0-----0-----0-----0--|--------------------------|


D|-----------8-----8--8-----|-----0-----0-----0--0--0--|
A|-----8-----8-----8--8-----|-----8-----8-----8--8--8--|
F|-----5--5--5-----5--5-----|--0--0--0--0--0--0--0--0--|
C|-/5--5--5--------5--5-----|--9-----9-----9--9--9-----|
G|-/6-----6--------6--6-----|--10----10----x-----x-----|
D|--------------------------|--------------10----10----|


D|--------------------------|--------------------------|
A|-----10-10----10----10-10-|--8--8--8-----8-----8--8--|
F|--9--9--9-----9-----9--9--|--9--9--9-----9-----9--9--|
C|--7--7--7-----7-----7--7--|--7--7--7-----7-----7--7--|
G|--x--x--x-----x-----x--x--|--0--0--0-----0-----0--0--|
D|--9--9--9-----9-----9--9--|--------------------------|


D|--------------------------|--------------------------|
A|--9-----5-----10----9-----|--5-----12----12----12----|
F|--x-----x-----x-----x-----|--x-----x-----x-----x-----|
C|--6-----2-----7-----6-----|--2-----9-----9-----9-----|
G|--------------------------|--------------------------|
D|-----0-----0-----0-----0--|-----0-----0-----0-----0--|


D|--------------------------|-/12-12-12----10----12----|
A|--9-----5-----10----9-----|-----9--9-----9-----9-----|
F|--x-----x-----x-----x-----|-----9--9-----9-----9-----|
C|--6-----2-----7-----6-----|-----9--9-----9-----9-----|
G|--------------------------|-/11-11-11----11----11----|
D|-----0-----0-----0-----0--|--------------------------|


D|--------------------------|-----0-----0-----0-----0--|
A|-----13-13-13----13-13----|-----8-----8-----8--8--8--|
F|-----12-12-12----12-12----|--0--0--0--0--0--0--0--0--|
C|--10-10-10-10----10-10----|--9-----9-----9--9--9--9--|
G|--x-----x--x-----x--x-----|--10----10----x-----x--x--|
D|--11----11-11----11-11----|--------------10----10-10-|


D|--------------------------|--------------------------|
A|-----10-10----10----10-10-|--8--8--8-----8-----8--8--|
F|--9--9--9-----9-----9--9--|--9--9--9-----9-----9--9--|
C|--7--7--7-----7-----7--7--|--7--7--7-----7-----7--7--|
G|--x--x--x-----x-----x--x--|--0--0--0-----0-----0--x--|
D|--9--9--9-----9-----9--9--|-----------------------7--|
                                                    T

                                      
D|--------------------------|--------------------------|
A|-----8-----8-----8--8--8--|-----8-----8-----8--8--8--|
F|-----9--9--9-----9--9--9--|-----8--8--8-----8--8--8--|
C|--10-10-10-10----10-10-10-|--9--9--9--9-----9--9--9--|
G|--x--x--x--x-----x--x--x--|--x-----x--x-----x--x--x--|
D|--8-----8--------8--8--8--|--7-----7--7-----7--7--7--|
    T     T        T  T  T     T     T  T     T  T  T


D|--------------------------|--------------------------|
A|----0-0---0-0---0-0---0-0-|---3-3---3-3---0-0---0-0--|
F|--------1-----2-----1-----|/4-----4-----2---1--------|
C|--------------------------|-------------------2------|
G|--------------------------|--------------------------|
D|--0-----------------------|--------------------------|


[OUTRO CHORUS]

D|--------------------------|--------------------------|
A|----0-0---0-0---0-0---0-0-|---0-0---0-0---0-0---0-0--|
F|--------4-----------4h5---|-------5-----------4------|
C|--------------------------|--------------------------|
G|--5-----------5-----------|-5-----------5------------|
D|--------------------------|--------------------------|

                I     got     stat -ic    in    my

D|--------------------------|--------------------------|
A|----0-0---0-0---0-0---0-0-|---0-0---0-0---0-0---0-0--|
F|--------0-----------0h3---|-------3p0---------4------|
C|--------------------------|--------------------------|
G|--4-----------4-----------|-4-----------4------------|
D|--------------------------|--------------------------|

    head

D|--------------------------|--------------------------|
A|----0-0---0-0---0-0---0-0-|---0-0---0-0---0-0---0-0--|
F|--------0-----------0h2---|-------2p0---------4------|
C|--------------------------|--------------------------|
G|--3-----------3-----------|-3-----------3------------|
D|--------------------------|--------------------------|

                The   re     -flec  ted   sound of

D|--------------------------|--------------------------|
A|----0-0---0-0---0-0---0-0-|---0-0---0-0---0-0---0-0--|
F|--------1-----2-----1-----|-------1------------------|
C|--------------------------|-2-----------2-----0------|
G|--------------------------|--------------------------|
D|--0-----------------------|--------------------------|

    everything

D|--------------------------|--------------------------|
A|----0-0---0-0---0-0---0-0-|---0-0---0-0---0-0---0-0--|
F|--------4-----------4h5---|-------5-----------7------|
C|--------------------------|--------------------------|
G|--5-----------5-----------|-5-----------5------------|
D|--------------------------|--------------------------|

                Tried to      go    to    where it

D|--------------------------|--------------------------|
A|----0-0---0-0---0-0---0-0-|---0-0---0-0---0-0---0-0--|
F|--------0-----------0h3---|-------3p0---------4------|
C|--------------------------|--------------------------|
G|--4-----------4-----------|-4-----------4------------|
D|--------------------------|--------------------------|

    led

D|--------------------------|--------------------------|
A|----0-0---0-0---0-0---0-0-|---0-0---0-0---0-0---0-0--|
F|--------0-----------0h2---|-------2p0---------4------|
C|--------------------------|--------------------------|
G|--3-----------3-----------|-3-----------3------------|
D|--------------------------|--------------------------|

                But   it      did  -n't   lead  to 

D|--------------------------|--------------------------|
A|----0-0---0-0---0-0---0-0-|---0-0---0-0---0-0---0-0--|
F|--------1-----2-----1-----|-------1------------------|
C|--------------------------|-2-----------2-----0------|
G|--------------------------|--------------------------|
D|--0-----------------------|--------------------------|

    anything

D|--------------------------|--------------------------|
A|----0-0---0-0---0-0---0-0-|---0-0---0-0---0-0---0-0--|
F|--------4-----------4h5---|-------5-----------4------|
C|--------------------------|--------------------------|
G|--5-----------5-----------|-5-----------5------------|
D|--------------------------|--------------------------|

                The   noise   is    com  -ing   out

D|--------------------------|--------------------------|
A|----0-0---0-0---0-0---0-0-|---0-0---0-0---0-0---0-0--|
F|--------0-----------0h3---|-------3p0---------4------|
C|--------------------------|--------------------------|
G|--4-----------4-----------|-4-----------4------------|
D|--------------------------|--------------------------|

   

D|--------------------------|--------------------------|
A|----0-0---0-0---0-0---0-0-|---0-0---0-0---0-0---0-0--|
F|--------0-----------0h2---|-------2p0---------4------|
C|--------------------------|--------------------------|
G|--3-----------3-----------|-3-----------3------------|
D|--------------------------|--------------------------|
 
                and   if      it's  not   out   now

D|--------------------------|--------------------------|
A|----0-0---0-0---0-0---0-0-|---0-0---0-0---0-0---0-0--|
F|--------1-----2-----1-----|-------1------------------|
C|--------------------------|-2-----------2-----0------|
G|--------------------------|--------------------------|
D|--0-----------------------|--------------------------|


D|--------------------------|--------------------------|
A|----0-0---0-0---0-0---0-0-|---0-0---0-0---0-0---0-0--|
F|--------4-----------4h5---|-------5-----------4------|
C|--------------------------|--------------------------|
G|--5-----------5-----------|-5-----------5------------|
D|--------------------------|--------------------------|

                I     know    it's  just  a    -bout

D|--------------------------|--------------------------|
A|----0-0---0-0---0-0---0-0-|---0-0---0-0---0-0---0-0--|
F|--------0-----------0h3---|-------3p0---------4------|
C|--------------------------|--------------------------|
G|--4-----------4-----------|-4-----------4------------|
D|--------------------------|--------------------------|


D|--------------------------|--------------------------|
A|----0-0---0-0---0-0---0-0-|---0-0---0-0---0-0---0-0--|
F|--------0-----------0h2---|-------2p0---------4------|
C|--------------------------|--------------------------|
G|--3-----------3-----------|-3-----------3------------|
D|--------------------------|--------------------------|

                to    drown   to   -mor   row   out

D|--------------------------|--------------------------|
A|----0-0---0-0---0-0---0-0-|---0-0---0-0---0-0---0-0--|
F|--------1-----2-----1-----|-------1------------------|
C|--------------------------|-2-----------2-----0------|
G|--------------------------|--------------------------|
D|--0-----------------------|--------------------------|
 

D|--------------------------|--------------------------|
A|----0-0---0-0---0-0---0-0-|---0-0---0-0---0-0---0-0--|
F|--------4-----------4h5---|-------5-----------4------|
C|--------------------------|--------------------------|
G|--5-----------5-----------|-5-----------5------------|
D|--------------------------|--------------------------|


D|--------------------------|--------------------------|
A|----0-0---0-0---0-0---0-0-|---0-0---0-0---0-0---0-0--|
F|--------0-----------0h3---|-------3p0---------4------|
C|--------------------------|--------------------------|
G|--4-----------4-----------|-4-----------4------------|
D|--------------------------|--------------------------|


D|--------------------------|--------------------------|
A|----0-0---0-0---0-0---0-0-|---0-0---0-0--------------|
F|--------0-----------0h2---|---------2----------------|
C|--------------------------|----------------------1---|
G|--3-----------3-----------|-3-----------------2------|
D|--------------------------|-------------0-h2---------|

D|-------0------------------|--------------------------|
A|------0-------------------|--------------------------|
F|-----1--------------------|--------------------------|
C|----2---------------------|--------------------------|
G|---2----------------------|--------------------------|
D|--0-----------------------|--------------------------|







************************************

| x   Dead note
| h   Hammer-on
| p   Pull-off
| /   Slide up
| \   Slide down
| T   Thumb
| m   Middle finger
| i   Index finger

************************************
Suggest correction
Give kudos to tab author, rate the tab!
1 2 3 4 5
comments
print report bad tab
guest
You may want to rate the tab now too:
select rating
Wanna post a correction for this tab? Suggest correction