Oops, an error
Loading. Please wait.

Wait For You tab

version 5
version 5

Whole song

Interactive

73 views 1 this week
no commentswrite comment
1 2 3 4 5
3 more votes to show rating
add to favorites
×
Save as Personal and add changes to this tab that will be seen only by you. Learn more ›
×
You can save this tab as Personal to edit and correct it or add notes. All changes will be seen only by you. Learn more »
launch autoscroll
font size
0
reset
how to read this tab
guitar tuner
edit
Autoscroll
slow
fast
+/-
esc
set tempo
stop
Author
Difficulty
About this tab version
Fingerstyle arrangement by Kelvin Lachica. Was this info helpful? Yes No
https://www.youtube.com/watch?v=S2KUkOkLlSc

[Intro]

e|---------------------------------------------------------------------------------------|
B|-1-0-----------------------------------1-0----------------------------------1-0--------|
G|-----0---2---------0----------------------0---2--------0------------------------0---2--|
D|-------2---------3--------0-2------2--------2--------3--------0-0h2------2--------2----|
A|---------------3--------2--------0-----------------3--------2----------0---------------|
E|-------------1--------3--------0-----------------1--------3----------0-----------------|

e|-----------------------------------3---------------------------------------------------|
B|--------------------------0---1---------------1------3---------------------------------|
G|-------0-------------------------------------------2-----------------------------------|
D|-----3--------0-2------2----2---0----------3-----3-------------------------------------|
A|---3--------2--------0-------------------0---------------------------------------------|
E|-1--------3--------0-------------------1----------------3------------------------------|

[Verse]

       o                   o                   o                   o
e|---------------------------------------------------------------------0--------<12>-----|
B|-----1--1--1----3-1-1-3--3p1-1------------------1--1----3-1-1-3--3p1---------------<15>|
G|--0--2--2----0--0------------------0-----0-0-2-------0--0------------------------------|
D|-----3---------------------------2---2-------3-----------------------------------------|
A|----------------x--------0---------x--------------------x--------0--------x------------|
E|-----1----------x------------------x---------1----------x---------------0-x-0----------|

                      o                   o                    o
e|-------------0-------------------0--------------------0--------------------0-----------|
B|---------------3-1-------1-------1-3-1--------1-------1-3-1--3p1--3--------1-----------|
G|-------0------------0-0--0--------------0--0--0-----------0----------------------------|
D|-----0---------------------2------------2--------3------------------0------------------|
A|----------x---------0---------x--------------------x--------------------x--0--x--------|
E|-3--------x-------------------x---------0----------x---------3----3-----x-----x--------|

       o                   o                   o                   o
e|------------------------------------------------------------------------------<12>-----|
B|-----1--1--1----3-1-1-3--3p1-1------------------1--1----3-1-1-3--3p1-1-------------<15>|
G|--0--2--2----0--0------------------0-----0-0-2-------0--0------------------------------|
D|-----3---------------------------2---2-------3-----------------------------------------|
A|----------------x--------0---------x--------------------x--------0--------x------------|
E|-----1----------x------------------x---------1----------x---------------0-x-0----------|

                      o                   o                    o
e|-------------0-------------------0--------------------0--------------------0-----------|
B|---------------3-1-------1-------1-3-1--------1-------1-3-1--3p1--3--------1-----------|
G|-------0------------0-0--0--------------0--0--0-----------0----------------------------|
D|-----0---------------------2------------2--------3------------------0------------------|
A|----------x---------0---------x--------------------x--------------------x--0--x--------|
E|-3--------x-------------------x---------0----------x---------3----3-----x-----x--------|

[Prechorus]

                                               o                 o
e|----3-3-3-3----------------------------------3-3-3-1----0---------0-------------------|
B|-1--1-1-1-1-------1-0---0h1--1-1-------1-1---1-1-1-0----0----3---------------1-1------|
G|----------------0---0---0h2--2-2-----2-2-2-------------------2-------------2----------|
D|------------------------0h3--------------------------------0---0-----0----------------|
A|----3--------x--------------------x-------------------x-----------------x-------------|
E|-------------x----------1---------x----------0--------x-----------------x-------------|

                                                            o
e|-3-3-3-3--------------------------------0-1-0-----------------------------------------|
B|-1-1-1-1------1-0---0h1--1-1-------1-3--0---0-3-----1-1-3-3---3-(3)-------------------|
G|------------0---0---0h2--2-2-----2-2-2----------------------0---(0)-------------------|
D|--------------------0h3---------------------------------------------------------------|
A|-3--------x-------------------x------------------x---------------x--------------------|
E|----------x---------1---------x---------3--------x--------3------x--------------------|

[Chorus]

                        o                  o                 o
e|-----------------------------------0-----------------------0-----------0--------------|
B|-3-1-0-1------0-------1-------1h3--1-3-1-0--1------3-------1-------1---1--3-1-0--1----|
G|-------2---2--0----0--2-----2---------------2---0-------0--------0----(2)-0-0-0--2---2|
D|-------3-3-------0----2---------------------3-3-------0--------------------------3-3--|
A|-----------------------------------x-----------------------------------x--------------|
E|-------1------3----------0---------x--------1------3-------------------x---------1----|

             o                   o                    o                   
e|------------------------------0h3-----1-1---0-----------------------------------------|
B|-0------1------------1-1-1-1---1------0-0---0-----3-------1---------------------------|
G|-0---0--2-------2----0-0-0-0----------------------0-----2-----------------------------|
D|---0----2-----2--------------------3--------------------------------------------------|
A|-------------------x----------------------x-------------------------------------------|
E|-3---------0-------x-----------1----------x----0----3---------------------------------| 

                        o                  o                 o
e|-----------------------------------0-----------------------0-----------0--------------|
B|-3-1-0-1------0-------1-------1h3--1-3-1-0--1------3-------1-------1---1--3-1-0--1----|
G|-------2---2--0----0--2-----2---------------2---0-------0--------0----(2)-0-0-0--2---2|
D|-------3-3-------0----2---------------------3-3-------0--------------------------3-3--|
A|-----------------------------------x-----------------------------------x--------------|
E|-------1------3----------0---------x--------1------3-------------------x---------1----|

             o                   o                    o                   o
e|------------------------------0h3-----1-1---0-----------------------------------------|
B|-0------1------------1-1-1-1---1------0-0---0-----3-----1-1-1--0-----1----------------|
G|-0---0--2-------2----0-0-0-0----------------------0-----2-2-2--0-----2----------------|
D|---0----2-----2--------------------3---------------------------------3----------------|
A|-------------------x----------------------x-----------------x-------------------------|
E|-3---------0-------x-----------1----------x----0----3-------x-----0-----1-------------|

[Verse]

                   o                   o                   o                o
e|--------------------------------------------------0-----------------------------------|
B|---1-1--1-1-1-3--3p1-1-------------------------------3-1-3p1-3------------------------|
G|-2------0---0---------------0-0-0-0--2p0-0----------------------0-----0-------2-------|
D|-----------------------2-------------3------3-------------------------------3---------|
A|--------x--------0-------x---------------------x-------------------x-------------x----|
E|--------x----------------x-----------1---------x---------3---3-----x------1------x----|
 
          o                  o
e|-0------------------0-------------------0-------------------0-------------------------|
B|---3-1------1-------0-3-1------1--------0-3-1--3p1-3--------0-------------------------|
G|--------0-0-0--------------0-0--------------------------------------------------------|
D|--------------2------------0------3-------------------0-------------------------------|
A|--------0--------x-------------------x-------------------x-----x----------------------|
E|-----------------x---------0---------x---------3---3-----x-----x----------------------|


       o                   o                   o                   o
e|---------------------------------------------------------------------0--------<12>-----|
B|-----1--1--1----3-1-1-3--3p1-1------------------1--1----3-1-1-3--3p1---------------<15>|
G|--0--2--2----0--0------------------0-----0-0-2-------0--0------------------------------|
D|-----3---------------------------2---2-------3-----------------------------------------|
A|----------------x--------0---------x--------------------x--------0--------x------------|
E|-----1----------x------------------x---------1----------x---------------0-x-0----------|

                      o                   o                    o
e|-------------0-------------------0--------------------0--------------------0-----------|
B|---------------3-1-------1-------1-3-1--------1-------1-3-1--3p1--3--------1-----------|
G|-------0------------0-0--0--------------0--0--0-----------0----------------------------|
D|-----0---------------------2------------2--------3------------------0------------------|
A|----------x---------0---------x--------------------x--------------------x--0--x--------|
E|-3--------x-------------------x---------0----------x---------3----3-----x-----x--------|

[Prechorus]

                                               o                 o
e|----3-3-3-3----------------------------------3-3-3-1----0---------0-------------------|
B|-1--1-1-1-1-------1-0---0h1--1-1-------1-1---1-1-1-0----0----3---------------1-1------|
G|----------------0---0---0h2--2-2-----2-2-2-------------------2-------------2----------|
D|------------------------0h3--------------------------------0---0-----0----------------|
A|----3--------x--------------------x-------------------x-----------------x-------------|
E|-------------x----------1---------x----------0--------x-----------------x-------------|

                                                            o
e|-3-3-3-3--------------------------------0-1-0-----------------------------------------|
B|-1-1-1-1------1-0---0h1--1-1-------1-3--0---0-3-----1-1-3-3---3-(3)-------------------|
G|------------0---0---0h2--2-2-----2-2-2----------------------0---(0)-------------------|
D|--------------------0h3---------------------------------------------------------------|
A|-3--------x-------------------x------------------x---------------x--------------------|
E|----------x---------1---------x---------3--------x--------3------x--------------------|

[Chorus]
                    
                        o                  o                 o
e|-----------------------------------0-----------------------0-----------0--------------|
B|-3-1-0-1------0-------1-------1h3--1-3-1-0--1------3-------1-------1---1--3-1-0--1----|
G|-------2---2--0----0--2-----2---------------2---0-------0--------0----(2)-0-0-0--2---2|
D|-------3-3-------0----2---------------------3-3-------0--------------------------3-3--|
A|-----------------------------------x-----------------------------------x--------------|
E|-------1------3----------0---------x--------1------3-------------------x---------1----|

             o                   o                    o                   
e|------------------------------0h3-----1-1---0-----------------------------------------|
B|-0------1------------1-1-1-1---1------0-0---0-----3-------1---------------------------|
G|-0---0--2-------2----0-0-0-0----------------------0-----2-----------------------------|
D|---0----2-----2--------------------3--------------------------------------------------|
A|-------------------x----------------------x-------------------------------------------|
E|-3---------0-------x-----------1----------x----0----3---------------------------------| 

                           o                  o                 o
e|-----------------------------------0-----------------------0-----------0--------------|
B|-3-1-0-1------0-------1-------1h3--1-3-1-0--1------3-------1-------1---1--3-1-0--1----|
G|-------2---2--0----0--2-----2---------------2---0-------0--------0----(2)-0-0-0--2---2|
D|-------3-3-------0----2---------------------3-3-------0--------------------------3-3--|
A|-----------------------------------x-----------------------------------x--------------|
E|-------1------3----------0---------x--------1------3-------------------x---------1----|

             o                   o                                       
e|------------------------------0h3-----1-1---0----------------0------------------------|
B|-0------1------------1-1-1-1---1------0-0---0-----3--------3---3-1-0--1--------0-----1|
G|-0---0--2-------2----0-0-0-0----------------------0------0------------2---2----0---0--|
D|---0----2-----2--------------------3-------------------0--------------3-3---3----0----|
A|-------------------x----------------------x-------------------------------------------|
E|-3---------0-------x-----------1----------x----0----3-----------------1--------3------|

e|-----------0----------------------------0---------0-0---------------------------------|
B|-------1h3---0-3-1-0---1--------3---------------------3-1-0--1--------0-----1---------|
G|-----2-----------------2---2---------0----------2------------2---2----0---0-------2---|
D|---2-------------------3-3---0-----0----------2--------------3-3---3----0-------2---2-|
A|--------------------------------------------0---------------------------------0-------|
E|-0---------------------1--------3----------------------------1--------3---------------|

e|-----------3----1-1---0------------------------<15>-----------------------------------|
B|----1-1-1-------------------3-------1-1-0-1---------<13>-<15>----1-1p0--1-------------|
G|--------------------2----2----------------------------------------------2-------------|
D|--------------3------------------0--------------------------------------3-------------|
A|-0------------------------------------------------------------------------------------|
E|-----------1-------------------3-------------1-----------------3----------------------|



************************************

| x   Dead note
|(n)  Ghost note
| h   Hammer-on
| p   Pull-off
| /   Slide up
| \   Slide down
| o   Wrist thump
|<->  Harmonic

************************************

            
            
Suggest correction
Creating personal tab
Creating personal tab
You can edit any tab online and save it as your Personal.

You can edit, replace or remove any tab part or add personal notes – all changes will be seen only by you.

Personal tabs can be accessed anytime from any device, even offline.
Learn more »
Give kudos to tab author, rate the tab!
1 2 3 4 5
comments
print report bad tab
guest
You may want to rate the tab now too:
select rating
Wanna post a correction for this tab? Suggest correction