Oops, an error
Loading. Please wait.

All The Girls Love Alice Tab

version 1
version 1

Intro

Whole song

2,187 views 24 this week
no commentswrite comment
1 2 3 4 5
please rate
add to favorites
launch autoscroll
font size
0
reset
how to read this tab
guitar tuner
Tab Pro tools
  • play this tab
  • loop segment
  • change instrument
  • show fretboard
  • metronome
Autoscroll
slow
fast
+/-
esc
set tempo
stop
Contributor
Difficulty
intermediate
ALL THE GIRLS LOVE ALICE

/-slide down
^-bend
p-pulloff
h-hammeron
~-vibrato


Main Riff:

e---------------------------------------------------------------------------|
B---------------------------------------------------------------------------|
G---------------8-6---------------------------------------------------------|
D---8-6---6-8---8-6---------------------------------------------------------|
A---8-8--8---8--6-4---------------------------------------------------------|
E---6-----------------------------------------------------------------------|

Chorus riff:

e----------13-16-16p13------------------------------------------------------|
B--------14-----------14//--------------------------------------------------|
G------15-------------------------------------------------------------------|
D----15---------------------------------------------------------------------|
A--13-----------------------------------------------------------------------|
E---------------------------------------------------------------------------|


Main Riff X6

Am#                            F#
Raised to be a lady by the golden rule, 
Dm#                          Am#
Alice was the spawn of a public school.
  MAIN RIFF X1
                                        F#
With a double barrel name.. in the back of her brain,
            Dm#         G#                      Am#
And a simple case of mummy-dont-love-me blues. MAIN RIFF X2


VERSE 2 
Am#                     F#
Reality it seems.. was just a dream, 
       Dm#                      Am#
She couldnt get it on.. with the boys on the scene.
 MAIN RIFF x1                                                  F#
But what do you expect from a chick who’s just sixteen, 
       Dm#                            G#                        Am#
And hey hey hey  (hey hey hey)... you know what I mean. MAIN RIFF X2


CHORUS 1 
Am#                        F7#
All the young girls love Alice, 
C#                           D7#
Tender young Alice they say. 
           Am#                  F#
Come over and see me, come over and please me, 
G#          B           Am#
Alice it's my turn today.    CHORUS RIFF

 Am#                       F7#
All the young girls love Alice, 
C#                           D7#
Tender young Alice they say.
       Am#                               F#
If I give you my number… Will you promise to call me? 
G#                 B           Am#
Wait till my husband’s away.  CHORUS RIFF

VERSE 3 
Poor little darling.. with a chip out of her heart, 
It's like acting in a movie.. When you've got the wrong part. 
Getting your kicks, in another girls bed, 
And it was only last Tuesday... Oh..they found you in the subway dead.

VERSE 4 
And who could you call your friends down in Soho? 
One or two, middle aged dykes in a Go-Go? 
And what do you expect from a sixteen year old yo-yo? 
And hey hey hey (hey hey hey}...oh don't you know.

CHORUS   
Am#                        F7#
All the young girls love Alice, 
C#                           D7#
Tender young Alice they say. 
           Am#                  F#
Come over and see me, come over and please me, 
G#          B           Am#
Alice it's my turn today.    CHORUS RIFF

 Am#                       F7#
All the young girls love Alice, 
C#                           D7#
Tender young Alice they say.
       Am#                               F#
If I give you my number… Will you promise to call me? 
G#                 B           Am#
Wait till my husband’s away.  CHORUS RIFF

OUTRO: Am# and fade

This song also works well if you capo it at the first fret to play the verses and 
such. The just transpose the chords down one-half step.
comments
We did not receive enough feedback on this tab! Please rate:
print report bad tab
1 2 3 4 5
I want to post or [tab]
guest
You may want to rate the tab now too:
select rating
Please do not post tabs as comments. Select "correction" instead!